Oops, an error
Loading. Please wait.

Trail Of Time chords

version 1
version 1

Whole song

40 views 1 this week
1 commentread comment
1 2 3 4 5
2 more votes to show rating
add to favorites
×
Save as Personal and add changes to this tab that will be seen only by you. Learn more ›
×
You can save this tab as Personal to edit and correct it or add notes. All changes will be seen only by you. Learn more »
launch autoscroll
font size
0
reset
transpose
0
reset
simplify chords
display chords
guitar tuner
edit
Autoscroll
slow
fast
+/-
esc
set tempo
stop
Strumming
There is no strumming pattern for this song yet. and get +5 IQ
Trail of Time
From the album Smothered and Covered

[Intro]
D
   D                                  C#    D                    A7                  D
e|-------------------10-----10-10-10--9---/10--------------------------------------------10----|
B|-------------10-------10--10-10-10--9---/10------10-10---------------5---5----------------10-|
G|----------11--------------11-11-11-10---/11------------11----------6-------6-----------------|
D|-------12---------------------------------------------------12/7---------------7/-12---------|
A|-12-12---------------------------------------------------------------------------------------|
E|---------------------------------------------------------------------------------------------|

[Verse 1]
N.C.             D                 C# D
On the trail of time there's many sorrows
                                A7
And a worried mind can't be at rest
           D              C# D 
For everything I've ever wanted
          A7                    D    
I do not find though I done my best

[Chorus]
  D5 C#5 C5 B5  Bb                    D
I can see the stars in the wild blue yonder
    D5 C#5 C5 B5 Bb             A7
And I count each one up in the sky
               D                          C#    D
I've got them named but when it comes to yours dear
             A7                   D
I remember things and I start to cry

[Interlude]
   D                                  C#    D                    A7                  D
e|-------------------10-----10-10-10--9---/10-----------------------------------------------10----|
B|-------------10-------10--10-10-10--9---/10------10-10---------------5---5-------------10----10-|
G|----------11--------------11-11-11-10---/11------------11----------6-------6---------11---------|
D|-------12---------------------------------------------------12/7---------------7/-12------------|
A|-12-12------------------------------------------------------------------------------------------|
E|------------------------------------------------------------------------------------------------|

[Verse 2]
                   D               C#7 D
Down the trail of time the way is crooked
                                 A7
I've left behind many pleasures too
           D               C#7 D  
I've also left my share of sorrows
             A7             D
And that is why I feel so blue

[Verse 3]
D5 C#5 C5 B5  Bb                  D
I  re-mem-ber two blue eyes that loved me
  D5 C#5 C5 B5 Bb                  A7
In a thousand years I couldn't forget
           D               C# D
I'm left alone to face the future
             A7              D
Sometimes I wish we'd never met

[Coda]
   D                                  C#    D       
e|-------------------10-----10-10-10--9---/10-|
B|-------------10-------10--10-10-10--9---/10-|
G|----------11--------------11-11-11-10---/11-|
D|-------12-----------------------------------|
A|-12-12--------------------------------------|
E|--------------------------------------------|

            
            
Suggest correction
Creating personal tab
Creating personal tab
You can edit any tab online and save it as your Personal.

You can edit, replace or remove any tab part or add personal notes – all changes will be seen only by you.

Personal tabs can be accessed anytime from any device, even offline.
Learn more »
Give kudos to tab author, rate the tab!
1 2 3 4 5
comments
print report bad tab
1 comment total.
0 reply
richwoodguild 10 Mar 01, 2017 08:57 AM

Thank you, and thanks for the other Handsome Family songs. They're a great band

guest
You may want to rate the tab now too:
select rating
Wanna post a correction for this tab? Suggest correction