Oops, an error
Loading. Please wait.

Abysmal tab

version 1
version 1

Whole song

Interactive

4,454 views 3 this week
2 commentsread comments
1 2 3 4 5
1 last vote to show rating
add to favorites
×
Save as Personal and add changes to this tab that will be seen only by you. Learn more ›
×
You can save this tab as Personal to edit and correct it or add notes. All changes will be seen only by you. Learn more »
launch autoscroll
font size
0
reset
how to read this tab
guitar tuner
edit
Autoscroll
slow
fast
+/-
esc
set tempo
stop
Author
----------------------------------------------------------------------------
                             ABYSMAL - The Haunted
----------------------------------------------------------------------------
Tabbed by: james
Email: the.master.ofpuppets@hotmail.com

Tuning: One Step Down

Intro
d|-------------------------------0-----------| x4
A|----0--------------0-------------0---------|
F|------0---0-------------0-------------0----|
C|--------8-------------8-------------8------|
G|---------------------------7-------------7-|
D|--0-----------0----------------------------|

d|-------3--------3------0----------------------------|
A|-----3--------3-------------------0-------0-----0---|
F|----------------------------------------------------|
C|----------------------------------------------------|
G|-------------------------------3-------3------------|
D|--3--------3--------3-------1--------1-------1------|

d|-------------------------------0-----------| x4
A|----0--------------0-------------0---------|
F|------0---0-------------0-------------0----|
C|--------8-------------8-------------8------|
G|---------------------------7-------------7-|
D|--0-----------0----------------------------|

d|-------3--------3------0----------------------------|
A|-----3--------3-------------------0-------0-----0---|
F|----------------------------------------------------|
C|----------------------------------------------------|
G|-------------------------------3-------3------------|
D|--3--------3--------3-------1--------1-------1------|

d|-------------------------------0----------------------------0~~~~-| 
A|----0--------------0-------------0---------------0----------5~~~~-|
F|------0---0-------------0-------------0------------0---0----4~~~~-|
C|--------8-------------8-------------8----------------8------2~~~~-|
G|---------------------------7-------------7------------------------|
D|--0-----------0-------------------------------0-----------0-------|



repeat intro once more with minor variations and then crank your distortion and play this

d|--------------------|
A|--------0-----------|
F|----------0-3~~~~~~-|
C|--------------------|
G|---3-3--------------|
D|---1-1--------------|


0:55
d|-----0------------0-----------0---------0-------------|
A|-------0------------0-----------0---------0-----------|
F|------------------------------------------------------|
C|--2~~~~~~--2-5-9-8~~~8/9-----5~~-5-2-5-4~~-4-16-16-16-|
G|--2~~~~~~--2-5-9-8~~~8/9-----5~~-5-2-5-4~~-4-16-16-16-|
D|--0~~~~~~--0-3-7-6~~~6/7-----3~~-3-0-3-2~~-2-14-14-14-|

1:04
d|-----0------------0-----------0------0---------|
A|-------0------------0-----------0------0-------|
F|-----------------------------------------------|
C|--2~~~~~~--2-5-9-8~~~8/9-----5~~-7~~~--7-8-7-5-|
G|--2~~~~~~--2-5-9-8~~~8/9-----5~~-7~~~--7-8-7-5-|
D|--0~~~~~~--0-3-7-6~~~6/7-----3~~-5~~~--5-6-5-3-|

1:11
d|-------------------------------------------------------------------------|
A|-------------------------------------------------------------------------|
F|------/9-----------------------------------/9----------------------------|
C|---------9-8---------------2------------------9-8-------------2----------|
G|---------------10---------------------------------10---------------------|
D|---0--------------6---0-3-----3--0-3-5----0------------6--0-3---3-0-3-2--|
                        * *     *  * * *                    * *   * * * *

d|-------------------------------------------------------------------------|
A|-------------------------------------------------------------------------|
F|------/9-----------------------------------/9----------------------------|
C|---------9-8---------------2------------------9-8-------------2----------|
G|---------------10---------------------------------10---------------------|
D|---0--------------6---0-3-----3--0-3-5----0------------6--0-3---3-0-3-2--|
                        * *     *  * * *                    * *   * * * *

d|-------------------------------------------------------------------------|
A|-------------------------------------------------------------------------|
F|-------------------------------------------------------------------------|
C|---2-9-8-------3------------------------9-8-------3---8b9-9-9-9-9r8p7----|
G|---2-9-8-------3---------------5/8-7\2--9-8-------3-------------------10-|
D|---0-7-6--0-0--1---/7-6--0--3-----------7-6--0-0--1----------------------|
            ...                                ...                 
                           
d|-------------------------------------------------------------------------|
A|-------------------------------------------------------------------------|
F|-------------------------------------------------------------------------|
C|---2-9-8-------3------------------------9-8-------3---8b9-9-9-9-9r8p7----|
G|---2-9-8-------3---------------5/8-7\2--9-8-------3-------------------10-|
D|---0-7-6--0-0--1---/7-6--0--3-----------7-6--0-0--1----------------------|
            ...                                ...                 

d|-------------------------------------------------------------------------|
A|-------------------------------------------------------------------------|
F|-------------------------------------------------------------------------|
C|-----5~~~~~~~~~~~~~~~~----9~~~~~~~~~~~~~~~~~~~~~~~~~~--------------------|
G|-----5~~~~~~~~~~~~~~~~----7~~~~~~~~~~~~~~~~~~~~~~~~~~--------------------|
D|-----3~~~~~~~~~~~~~~~~~-x-5~~~~~~~~~~~~~~~~~~~~~~~~~~--------------------|

Guitar I: Right Speaker 1:45
d|-------------------------------------------------------------------------|
A|-------------------------------------------------------------------------|
F|-------------------------------------------------------------------------|
C|-------------------------------------------------------------------------|
G|----2-------2-----5-2-------2-2--5----2----------------------------------|
D|----0--0-0--0--0--3-0--0-0--0-0--3-0--0----------------------------------|
         ...     .       ...         .

Guitar II: Left Speaker 
d|-------------------------------------------------------------------------|
A|-------------------------------------------------------------------------|
F|-------------------------------------------------------------------------|
C|-------------------9-8---------------------------------------------------|
G|---2---/10-9---6-7------10-9-10------------------------------------------|
D|---0---------------------------------------------------------------------|

d|-------------------------------------------------------------------------|
A|-------------------------------------------------------------------------|
F|-------------------------------------------------------------------------|
C|-----5~~~~~~~~~~~~~~~~----9~~~~~~~~~~~~~~~~~~~~~~~~~~--------------------|
G|-----5~~~~~~~~~~~~~~~~----7~~~~~~~~~~~~~~~~~~~~~~~~~~--------------------|
D|-----3~~~~~~~~~~~~~~~~~-x-5~~~~~~~~~~~~~~~~~~~~~~~~~~--------------------|

Chorus: 1:53
d|-----0------------0-----------0---------0-------------|
A|-------0------------0-----------0---------0-----------|
F|------------------------------------------------------|
C|--2~~~~~~--2-5-9-8~~~8/9-----5~~-5-2-5-4~~-4-16-16-16-|
G|--2~~~~~~--2-5-9-8~~~8/9-----5~~-5-2-5-4~~-4-16-16-16-|
D|--0~~~~~~--0-3-7-6~~~6/7-----3~~-3-0-3-2~~-2-14-14-14-|

d|-----0------------0-----------0------0---------|
A|-------0------------0-----------0------0-------|
F|-----------------------------------------------|
C|--2~~~~~~--2-5-9-8~~~8/9-----5~~-7~~~--7-8-7-5-|
G|--2~~~~~~--2-5-9-8~~~8/9-----5~~-7~~~--7-8-7-5-|
D|--0~~~~~~--0-3-7-6~~~6/7-----3~~-5~~~--5-6-5-3-|

Then play the riffs above already tabbed out
followed by the solo

Rhythm Guitar plays this twice or so throughout the solo:
d|-------------------------------------------------------------------------|
A|-------------------------------------------------------------------------|
F|-------------------------------------------------------------------------|
C|-------------------------------------------------------------------------|
G|-2----2-2----2-2----2-2----2-2----2-2----2-2----2-2----9-9----9-9----9-9-|
D|-0--0-0-0--0-0-0--0-0-0--0-0-0--0-0-0--0-0-0--0-0-0--0-7-7--7-7-7--7-7-7-|
      .      .      .      .      .      .      .      .      .      .

d|-------------------------------------------------------------------------|
A|-------------------------------------------------------------------------|
F|-------------------------------------------------------------------------|
C|-------------------------------------------------------------------------|
G|----9-9----12-12-----12-12-----9-9----9-9~~~~~~~~~~~~~~~~~~~~~~~~~\------|
D|--7-7-7--7-10-10--10-10-10--10-7-7--7-7-7~~~~~~~~~~~~~~~~~~~~~~~~~\------|
    .      .        ..        ..      .

and the solo ofcourse goes:
d|-------------------------------------------------------------------------|
A|---12~~~~~~\--12-13-15-13-12------12-------------------------------------|
F|---11~~~~~~\-----------------14-------14--12--11---12~~------------------|
C|-------------------------------------------------------------------------|
G|-----------------------------------------------------------7~~~~~~~------|
D|-------------------------------------------------------------------------|

d|-------------------------------------7-6-7-6-----------------------------|
A|-----------------------------------------------8--7-8-7h8p7---------7----|
F|--------------------------------------------------------------5-4-5---5--|
C|-----------------------------8b9r8~~-------------------------------------|
G|-------------------------------------------------------------------------|
D|---8-7-5---10-8-7---15-14-12---------------------------------------------|
     * * *    * * *    *  *  *

d|-------------------------------------------------------------------------|
A|-------------------------------------------------------------------------|
F|--4h5p4-2-4~~~~~-4h5--5h7--7h9-9--7h9p7-5-7-5h7p4---14b16-16-16r14p12-11-|
C|-------------------------------------------------------------------------|
G|-------------------------------------------------------------------------|
D|-------------------------------------------------------------------------|

d|------------------------------|
A|------------------------------|
F|---12-14~~~-12-11~~~--8-9~~~--|
C|------------------------------|
G|------------------------------|
D|------------------------------|
                              

d|---------------------------------------------------------|
A|---------------------------------------------------------|
F|---------------------------------------------------------|
C|------------------------------7-7-7-9-9-9-11-11-11-9-9-9-|
G|--6-6-6-7-7-7-9-9-9-10-10-10-----------------------------|
D|---------------------------------------------------------|
    * * * * * * * * * * * * *   * * * * * * * * * * * * * *

d|-------------------------------------------------------------------------|
A|--------------------------------------------------------------------15b17|
F|-----------------------------------------11-9-11--12-11-12--14-12-14-----|
C|----------------9-7-9--10-9-10--12-10-12---------------------------------|
G|-7-6-7--10-9-10----------------------------------------------------------|
D|-------------------------------------------------------------------------|
   * * *  *  *  * * * *  *  *  *   *  *  * *  *  *  *   *  *   *  * *

This next riff has two guitars but ive incorporated them into one riff
d|-------------------------------------------------------------------------|
A|-------------------------------------------------------------------------|
F|-----/9-----------/9-----------/9----------------------------------------|
C|--------9-8----------9-8----------9-8------------------------------------|
G|------------10-----------10-----------10----/10--9h10p9--6h7-------------|
D|--0-------------3------------5------------7------------------------------|

d|-------------------------------------------------------------------------|
A|-------------------------------------------------------------------------|
F|-----/9---------------------------/9-------------------------------------|
C|--------9-8--------/9-8h9-------------9-8--------------------------------|
G|------------10------------10-9---------------10-----------/5--5-5/7------|
D|--0-------------3--------------5------------------7---7-7----------------|


Then this lead starts playing ontop:
d|-------------------------------------------------------------------------|
A|-------------------------------------------------------------------------|
F|-/9-9--------------------------------------------------------------------|
C|------9-8-------------8--8h9p8------/10-10-------------------------------|
G|----------10-9---9-10-----------10---------10-9--------------7--9h10p9-7-|
D|-------------------------------------------------11--7---5-7-------------|

after you played that a couple of times finish like this 
d|-------------------------------------------------------------------------|
A|-------------------------------------------------------------------------|
F|--/9-9-------------------------------------------------------------------|
C|--------9-8-------------8---8h9p8------/10-10----------------------------|
G|------------10-9---9-10------------10----------12-9----------------------|
D|----------------------------------------------------11-7~~~~~~~~~~~------|


Then finish on the intro
d|-------------------------------0-----------| x4
A|----0--------------0-------------0---------|
F|------0---0-------------0-------------0----|
C|--------8-------------8-------------8------|
G|---------------------------7-------------7-|
D|--0-----------0----------------------------|

d|-------------------------------0----------------------------0~~~~-| 
A|----0--------------0-------------0---------------0----------5~~~~-|
F|------0---0-------------0-------------0------------0---0----4~~~~-|
C|--------8-------------8-------------8----------------8------2~~~~-|
G|---------------------------7-------------7------------------------|
D|--0-----------0-------------------------------0-----------0-------|

| *  palm muting
| b  bend
| r  release bend
| /  slide up
| \  slide down
| h  hammer-on
| p  pull-off
| ~  vibrato
| +  harmonic
| x  Mute note
============================================================================

            
            
Suggest correction
Creating personal tab
Creating personal tab
You can edit any tab online and save it as your Personal.

You can edit, replace or remove any tab part or add personal notes – all changes will be seen only by you.

Personal tabs can be accessed anytime from any device, even offline.
Learn more »
Give kudos to tab author, rate the tab!
1 2 3 4 5
comments
print report bad tab
2 comments total.
+1 reply
Lloyd2 10 Dec 31, 2007 04:07 AM

The tuning is definitly not Drop D it's D Standard

0 reply
Painless 156 May 30, 2011 12:06 PM

Hwo said it was drop D??

guest
You may want to rate the tab now too:
select rating
Wanna post a correction for this tab? Suggest correction