Oops, an error
Loading. Please wait.

Hollow Ground tab

version 2
version 2

Whole song

Interactive

3,100 views 3 this week
no commentswrite comment
1 2 3 4 5
2 more votes to show rating
add to favorites
×
Save as Personal and add changes to this tab that will be seen only by you. Learn more ›
×
You can save this tab as Personal to edit and correct it or add notes. All changes will be seen only by you. Learn more »
launch autoscroll
font size
0
reset
how to read this tab
guitar tuner
edit
Autoscroll
slow
fast
+/-
esc
set tempo
stop
#----------------------------------PLEASE NOTE---------------------------------#
#This file is the author's own work and represents their interpretation of the #
#song. You may only use this file for private study, scholarship, or research. #
#------------------------------------------------------------------------------#

HOLLOW GROUND
As recorded by The Haunted
(From the 2000 Album THE HAUNTED MADE ME DO IT)

Transcribed by The Foreverlorn
	

Words by Per M Jensen Music by Jonas Björler/Anders Björler
Arranged by The Haunted

F5
1 3 3 x x x
	
E5
0 2 2 x x x
	
C5(type 2)
x x 10 11 x x

Gtr I (Eb Ab Db Gb Bb Eb) - 'Anders left lead'
Gtr II (Eb Ab Db Gb Bb Eb) - 'Jensen rhythm machine'
Gtr III (Eb Ab Db Gb Bb Eb) - 'Anders right lead'

 Intro/Chorus
  Q=108
  N.C.
 6/8
  Gtr I
   S  S  S  S  S  S  S  S  S  S  S  S    S  S  S  S  S  S S S S S  S  S
|-------------------------------------|---------------------------------|
|-------------------------------------|---------------------------------|
|-12-12-12-12-12-12-12-12-12-12-12-12-|-11-11-11-11-11-11---------------|
|-10-10-10-10-10-10-10-10-10-10-10-10-|-10-10-10-10-10-10-7s9-9-9s10-10-|
|-------------------------------------|---------------------------------|
|-------------------------------------|-------------------5s7-7-7s=8--8-|
|
| Gtr II
|  E     S  S  S  S  E     S  S  S  S    E     S  S  S  S S S S S  S  S
|-------------------------------------|---------------------------------|
|-------------------------------------|---------------------------------|
|-------------------------------------|---------------------------------|
|-10----10-10-10-10-10----10-10-10-10-|-10----10-10-10-10-7s9-9-9s10-10-|
|-------------------------------------|---------------------------------|
|--8-----8--8--8--8--8-----8--8--8--8-|--8-----8--8--8--8-5s7-7-7s=8--8-|


  E5                    N.C.
  E S S S S E S S S S   S S S S S S S S S S +E
|---------------------|--------------------------|
|---------------------|--------------------------|
|---------------------|--------------------------|
|-2-2-2-2-2-2-2-2-2-2-|--------------------------|
|-2-2-2-2-2-2-2-2-2-2-|--------------------------|
|-0-0-0-0-0-0-0-0-0-0-|-0-2-2-2-3-3-3-5-5-5-(5)--|
|
| E S S S S E S S S S   S S S S S S S S S S +E
|---------------------|--------------------------|
|---------------------|--------------------------|
|---------------------|--------------------------|
|-2-2-2-2-2-2-2-2-2-2-|--------------------------|
|-2-2-2-2-2-2-2-2-2-2-|--------------------------|
|-0-0-0-0-0-0-0-0-0-0-|-0-2-2-2-3-3-3-5-5-5-(5)--|


  N.C.
   S  S  S  S  S  S  S  S  S  S  S  S    S  S  S  S  S  S S S S S  S  S
|-------------------------------------|---------------------------------|
|-------------------------------------|---------------------------------|
|-12-12-12-12-12-12-12-12-12-12-12-12-|-11-11-11-11-11-11---------------|
|-10-10-10-10-10-10-10-10-10-10-10-10-|-10-10-10-10-10-10-7-7-7-7--7--7-|
|-------------------------------------|-------------------0-0-0-0--0--0-|
|-------------------------------------|---------------------------------|
|
|  E     S  S  S  S  E     S  S  S  S    E     S  S  S  S S S S S  S  S
|-------------------------------------|---------------------------------|
|-------------------------------------|---------------------------------|
|-------------------------------------|---------------------------------|
|-10----10-10-10-10-10----10-10-10-10-|-10----10-10-10-10-7s9-9-9s10-10-|
|-------------------------------------|---------------------------------|
|--8-----8--8--8--8--8-----8--8--8--8-|--8-----8--8--8--8-5s7-7-7s=8--8-|


  E5                    N.C.
  E S S S S E S S S S   S S S S S S S S S S +E
|---------------------|---------------------------|
|---------------------|---------------------------|
|---------------------|---------------------------|
|-5-5-5-5-5-5-5-5-5-5-|---------------------------|
|---------------------|---------------------------|
|-3-3-3-3-3-3-3-3-3-3-|-0-2-2-2-3-3-3-5-5-5-(5)---|
|
| E S S S S E S S S S   S S S S S S S S S S +E
|---------------------|---------------------------|
|---------------------|---------------------------|
|---------------------|---------------------------|
|-2-2-2-2-2-2-2-2-2-2-|---------------------------|
|-2-2-2-2-2-2-2-2-2-2-|---------------------------|
|-0-0-0-0-0-0-0-0-0-0-|-0-2-2-2-3-3-3-5-5-5-(5)---|


   Pre-Chorus
    N.C.
    Gtrs I, II
    PM----|       PM  PM            PM----|       PM  PM
    S T T T +T  S S S S S S S S S   S T T T +T  S S S S S S S +E
||--------------------------------|-------------------------------|
||o-------------------------------|-------------------------------|
||--------------------------------|-------------------------------|
||--------------------------------|-------------------------------|
||o-------------3---2---2-3-5-3-2-|-------------3---2---2-3-5-(5)-|
||--1-1-1-1-(1)---1---1-----------|-1-1-1-1-(1)---1---1-----------|


  N.C.
  PM----|       PM  PM            PM----|       PM  PM
  S T T T +T  S S S S S S S S S   S T T T +T  S S S S S S S +E
|-------------------------------|--------------------------------||
|-------------------------------|-------------------------------o||
|-------------------------------|--------------------------------||
|-----------------2---4h5h7p5p4-|-----------------2--------------||
|-------------3-----------------|-------------3-------3-2-1-(1)-o||
|-0-0-0-0-(0)---0---0-----------|-0-0-0-0-(0)---0---0------------||


   Verse
    N.C.
    E S S S S E S S S S   E S S S S S S S S +E
||----------------------|-----------------------|
||o---------------------|-----------------------|
||----------------------|-----5s4-4-4s5-5S7-(7)-|
||--3-3-3-3-3-3-3-3-3-3-|-3-3-------------------|
||o---------------------|-----3s2-2-2s3-3S5-(5)-|
||--1-1-1-1-1-1-1-1-1-1-|-1-1-------------------|


  E5                    N.C.
                        PM    PM
  E S S S S E S S S S   e E E e E E
|---------------------|--------------||
|---------------------|-------------o||
|---------------------|--------------||
|-2-2-2-2-2-2-2-2-2-2-|--------------||
|-2-2-2-2-2-2-2-2-2-2-|---2-----5-7-o||
|-0-0-0-0-0-0-0-0-0-0-|-0---3-0------||


   Pre-Chorus
    F5
    Gtr II
    H.                               +H.
    |                                 |
    /                                 /

    Gtr I
    PM-----|       PM  PM             PM-----|       PM  PM
    S  T T T +T  S S S S S S S S S    S  T T T +T  S S S S S S S +E
||---------------------------------|---------------------------------|
||o--------------------------------|---------------------------------|
||---------------------------------|---------------------------------|
||---------------------------------|---------------------------------|
||o--------------3---2---2-3-5-3-2-|---------------3---2---2-3-5-(5)-|
||--1--1-1-1-(1)---1---1-----------|--1--1-1-1-(1)---1---1-----------|


  E5
  H.                               +H.
  |                                 |
  /                                 /

  PM-----|       PM  PM             PM-----|       PM  PM
  S  T T T +T  S S S S S S S S S    S  T T T +T  S S S S S S S +E
|--------------------------------|----------------------------------||
|--------------------------------|---------------------------------o||
|--------------------------------|----------------------------------||
|------------------2---4h5h7p5p4-|-------------------2--------------||
|--------------3-----------------|---------------3-------3-2-1-(1)-o||
|-0--0-0-0-(0)---0---0-----------|--0--0-0-0-(0)---0---0------------||


 Chorus
  N.C.
  Gtr I
   S  S  S  S E  S  S  S  S E    S  S  S  S E S S S S  S  S
|-----------------------------|-----------------------------|
|-----------------------------|-----------------------------|
|-12-12-12-12---12-12-12-12---|-11-11-11-11-----------------|
|-10-10-10-10---10-10-10-10---|-10-10-10-10---7s9-9-9s10-10-|
|-----------------------------|-----------------------------|
|-----------------------------|---------------5s7-7-7s=8--8-|
|
| Gtr II
|  S  S  S  S E  S  S  S  S E    S  S  S  S E S S S S  S  S
|-----------------------------|-----------------------------|
|-----------------------------|-----------------------------|
|-----------------------------|-----------------------------|
|-10-10-10-10---10-10-10-10---|-10-10-10-10---7s9-9-9s10-10-|
|-----------------------------|-----------------------------|
|--8--8--8--8----8--8--8--8---|--8--8--8--8---5s7-7-7s=8--8-|


  E5                    N.C.
  E S S S S E S S S S   S S S S S S S S S S +E
|---------------------|---------------------------|
|---------------------|---------------------------|
|---------------------|---------------------------|
|-2-2-2-2-2-2-2-2-2-2-|---------------------------|
|-2-2-2-2-2-2-2-2-2-2-|---------------------------|
|-0-0-0-0-0-0-0-0-0-0-|-0-2-2-2-3-3-3-5-5-5-(5)---|
|
| E S S S S E S S S S   S S S S S S S S S S +E
|---------------------|---------------------------|
|---------------------|---------------------------|
|---------------------|---------------------------|
|-2-2-2-2-2-2-2-2-2-2-|---------------------------|
|-2-2-2-2-2-2-2-2-2-2-|---------------------------|
|-0-0-0-0-0-0-0-0-0-0-|-0-2-2-2-3-3-3-5-5-5-(5)---|


  N.C.
   S  S  S  S  S  S  S  S  S  S  S  S    S  S  S  S  S  S S S S S  S  S
|-------------------------------------|---------------------------------|
|-------------------------------------|---------------------------------|
|-12-12-12-12-12-12-12-12-12-12-12-12-|-11-11-11-11-11-11---------------|
|-10-10-10-10-10-10-10-10-10-10-10-10-|-10-10-10-10-10-10-7-7-7-7--7--7-|
|-------------------------------------|-------------------0-0-0-0--0--0-|
|-------------------------------------|---------------------------------|
|
|  E     S  S  S  S  E     S  S  S  S    E     S  S  S  S S S S S  S  S
|-------------------------------------|---------------------------------|
|-------------------------------------|---------------------------------|
|-------------------------------------|---------------------------------|
|-10----10-10-10-10-10----10-10-10-10-|-10----10-10-10-10-7s9-9-9s10-10-|
|-------------------------------------|---------------------------------|
|--8-----8--8--8--8--8-----8--8--8--8-|--8-----8--8--8--8-5s7-7-7s=8--8-|


  E5                    N.C.
  E S S S S E S S S S   S S S S S S S S S S +E
|---------------------|---------------------------|
|---------------------|---------------------------|
|---------------------|---------------------------|
|-5-5-5-5-5-5-5-5-5-5-|---------------------------|
|---------------------|---------------------------|
|-3-3-3-3-3-3-3-3-3-3-|-0-2-2-2-3-3-3-5-5-5-(5)---|
|
| E S S S S E S S S S   S S S S S S S S S S +E
|---------------------|---------------------------|
|---------------------|---------------------------|
|---------------------|---------------------------|
|-2-2-2-2-2-2-2-2-2-2-|---------------------------|
|-2-2-2-2-2-2-2-2-2-2-|---------------------------|
|-0-0-0-0-0-0-0-0-0-0-|-0-2-2-2-3-3-3-5-5-5-(5)---|


 Guitar Solo 1
  Q=108
  N.C.
  Gtr III
   ~~~~~~~~~~~~~~~~~~~~~~~~~~~
                              |--3---|
   H                      +S  S  S   S S
|----------------------------------------|
|----------------------------------------|
|-10---------------------(10)-9h10p==9-7-|
|----------------------------------------|
|----------------------------------------|
|----------------------------------------|
|
| Gtr I
|  ~~~~~~~~~~~~~~~~~~~~~~~~~~~
|                             |--3---|
|  H                      +S  S  S   S S
|----------------------------------------|
|----------------------------------------|
|----------------------------------------|
|----------------------------------------|
|--8----------------------(8)-7h=8p==7-5-|
|----------------------------------------|
|
| Gtr II
|  PM----|       PM  PM
|  S T T T +T  S S S S S   S  S    S   S
|----------------------------------------|
|----------------------------------------|
|----------------------------------------|
|----------------------------------------|
|--------------3---2---2---3--5----3---2-|
|--1-1-1-1-(1)---1---1-------------------|


                      |--3---|
  E      E        E   S  S   S E    E
|--------------------------------------|
|----------------10---9h10p==9---------|
|-9-----10---------------------9---10--|
|--------------------------------------|
|--------------------------------------|
|--------------------------------------|
|
|                     |--3---|
| E      E        E   S  S   S E    E
|--------------------------------------|
|--------------------------------------|
|--------------------------------------|
|-----------------7---6h=7p==6---------|
|-7------8---------------------7----8--|
|--------------------------------------|
|
| PM----|         PM  PM
| S T T  T +T  S  S S S    S   S S +E
|--------------------------------------|
|--------------------------------------|
|--------------------------------------|
|--------------------------------------|
|--------------3----2------2---3-5-(5)-|
|-1-1-1--1-(1)----1---1----------------|


  N.C.
  ~~                                                          ~~
  Q.                  S S S  S S  S   S S   S     S +S    +S  Q.
|-----------------------------------|--------------------------------------|
|-----------------------------------|--------------------------------------|
|-9------------------10-9-7----7----|--------------------------------------|
|---------------------------10---10-|-9-7---6-----7-(7)b9r(7)-9------------|
|-----------------------------------|--------------------------------------|
|-----------------------------------|--------------------------------------|
|
| ~~                                                          ~~
| Q.                  S S S  S S  S   S S   S     S +S    +S  Q.
|-----------------------------------|--------------------------------------|
|-----------------------------------|--------------------------------------|
|-----------------------------------|--------------------------------------|
|-----------------------------------|--------------------------------------|
|-7-------------------8-7-5----5----|--------------------------------------|
|----------------------------8----8-|-7-5---4-----5-(5)b7r(5)-7------------|
|
| PM-----|       PM   PM              PM----|        PM       PM
| S  T T T +T  S S S  S S S  S S  S   S T T T +T  S  S     S  S  S S S +E
|-----------------------------------|--------------------------------------|
|-----------------------------------|--------------------------------------|
|-----------------------------------|--------------------------------------|
|------------------2----4h5h=7p5p=4-|----------------------2---------------|
|--------------3--------------------|-------------3--------------3-2-1-(1)-|
|-0--0-0-0-(0)---0----0-------------|-0-0-0-0-(0)----0--------0------------|


  N.C.
   ~~~~~~~~~~~~~~~~~~~~~~~~~~~
   H                      +E    S S   E      E       E   E   E    E
|-----------------------------------|--------------------------------|
|-----------------------------------|--------------------------------|
|-----------------------------------|----------------9---7---9---10--|
|-10---------------------(10)---9-7-|-9-----10-----------------------|
|-----------------------------------|--------------------------------|
|-----------------------------------|--------------------------------|
|
|  ~~~~~~~~~~~~~~~~~~~~~~~~~~~
|  H                      +E    S S   E      E       E   E   E    E
|-----------------------------------|--------------------------------|
|-----------------------------------|--------------------------------|
|-----------------------------------|--------------------------------|
|-----------------------------------|--------------------------------|
|-----------------------------------|----------------7---5---7----8--|
|--8----------------------(8)---7-5-|-7------8-----------------------|
|
|  PM----|       PM  PM               PM----|        PM  PM
|  S T T T +T  S S S S S   S  S S S   S T T  T +T  S S S S S S S +E
|-----------------------------------|--------------------------------|
|-----------------------------------|--------------------------------|
|-----------------------------------|--------------------------------|
|-----------------------------------|--------------------------------|
|--------------3---2---2---3--5-3-2-|--------------3---2---2-3-5-(5)-|
|--1-1-1-1-(1)---1---1--------------|-1-1-1--1-(1)---1---1-----------|


  N.C.
  ~~
  Q.                  Q.                H.
|------------------------------------|--------------------------------------|
|------------------------------------|--------------------------------------|
|-9----------------------------------|--------------------------------------|
|------------------------------------|--------------------------------------|
|------------------------------------|--------------------------------------|
|------------------------------------|--------------------------------------|
|
| ~~                                                           ~~~
| Q.                  S  S S  S S  S    S  S    S      S S  S  Q.
|--------------------12------15------|-17-------------19--------------------|
|------------------------0------0----|-----0-------------0------------------|
|--------------------------9------12-|---------14----------16-16------------|
|------------------------------------|--------------------------------------|
|-7----------------------------------|--------------------------------------|
|------------------------------------|--------------------------------------|
|
| PM-----|       PM   PM                PM-----|         PM    PM
| S  T T T +T  S S S  S  S S  S S  S    S  T T  T +T   S S  S  S  S S S +E
|------------------------------------|--------------------------------------|
|------------------------------------|--------------------------------------|
|------------------------------------|--------------------------------------|
|------------------2-----4h5h=7p5p=4-|----------------------2---------------|
|--------------3---------------------|-----------------3----------3-2-1-(1)-|
|-0--0-0-0-(0)---0----0--------------|--0--0-0--0-(0)----0-----0------------|


   Verse
    N.C.
    Gtrs I, II
    E S S S S E S S S S   E S S S S S S S S +E
||----------------------|-----------------------|
||o---------------------|-----------------------|
||----------------------|-----5s4-4-4s5-5S7-(7)-|
||--3-3-3-3-3-3-3-3-3-3-|-3-3-------------------|
||o---------------------|-----3s2-2-2s3-3S5-(5)-|
||--1-1-1-1-1-1-1-1-1-1-|-1-1-------------------|


  E5                    N.C.
                        PM    PM
  E S S S S E S S S S   e E E e E E
|---------------------|--------------||
|---------------------|-------------o||
|---------------------|--------------||
|-2-2-2-2-2-2-2-2-2-2-|--------------||
|-2-2-2-2-2-2-2-2-2-2-|---2-----5-7-o||
|-0-0-0-0-0-0-0-0-0-0-|-0---3-0------||


 Chorus
  N.C.
  Gtr I
   S  S  S  S  S  S  S  S  S  S  S  S    S  S  S  S  S  S S S S S  S  S
|-------------------------------------|---------------------------------|
|-------------------------------------|---------------------------------|
|-12-12-12-12-12-12-12-12-12-12-12-12-|-11-11-11-11-11-11---------------|
|-10-10-10-10-10-10-10-10-10-10-10-10-|-10-10-10-10-10-10-7s9-9-9s10-10-|
|-------------------------------------|---------------------------------|
|-------------------------------------|-------------------5s7-7-7s=8--8-|
|
| Gtr II
|  E     S  S  S  S  E     S  S  S  S    E     S  S  S  S S S S S  S  S
|-------------------------------------|---------------------------------|
|-------------------------------------|---------------------------------|
|-------------------------------------|---------------------------------|
|-10----10-10-10-10-10----10-10-10-10-|-10----10-10-10-10-7s9-9-9s10-10-|
|-------------------------------------|---------------------------------|
|--8-----8--8--8--8--8-----8--8--8--8-|--8-----8--8--8--8-5s7-7-7s=8--8-|


  E5                    N.C.
  E S S S S E S S S S   S S S S S S S S S S +E
|---------------------|---------------------------|
|---------------------|---------------------------|
|---------------------|---------------------------|
|-2-2-2-2-2-2-2-2-2-2-|---------------------------|
|-2-2-2-2-2-2-2-2-2-2-|---------------------------|
|-0-0-0-0-0-0-0-0-0-0-|-0-2-2-2-3-3-3-5-5-5-(5)---|
|
| E S S S S E S S S S   S S S S S S S S S S +E
|---------------------|---------------------------|
|---------------------|---------------------------|
|---------------------|---------------------------|
|-2-2-2-2-2-2-2-2-2-2-|---------------------------|
|-2-2-2-2-2-2-2-2-2-2-|---------------------------|
|-0-0-0-0-0-0-0-0-0-0-|-0-2-2-2-3-3-3-5-5-5-(5)---|


  N.C.
   S  S  S  S  S  S  S  S  S  S  S  S
|-------------------------------------|
|-------------------------------------|
|-12-12-12-12-12-12-12-12-12-12-12-12-|
|-10-10-10-10-10-10-10-10-10-10-10-10-|
|-------------------------------------|
|-------------------------------------|
|
|  E     S  S  S  S  E     S  S  S  S
|-------------------------------------|
|-------------------------------------|
|-------------------------------------|
|-10----10-10-10-10-10----10-10-10-10-|
|-------------------------------------|
|--8-----8--8--8--8--8-----8--8--8--8-|


                                    Bridge
                                     Q=135
                                     E5         C5
                                    4/4
   S  S  S  S  S  S S S S S  S  S    W          W
|---------------------------------||----------|------|
|---------------------------------||----------|------|
|-11-11-11-11-11-11---------------||----------|-5----|
|-10-10-10-10-10-10-7s9-9-9s10-10-||-2--------|-5----|
|---------------------------------||-2--------|-3----|
|-------------------5s7-7-7s=8--8-||-0--------|------|
|
|  E     S  S  S  S S S S S  S  S    W          W
|---------------------------------||----------|------|
|---------------------------------||----------|------|
|---------------------------------||----------|-5----|
|-10----10-10-10-10-7s9-9-9s10-10-||-2--------|-5----|
|---------------------------------||-2--------|-3----|
|--8-----8--8--8--8-5s7-7-7s=8--8-||-0--------|------|


  B5     A5B5  N.C.
               Gtrs I, III
       |-3-|
  H    Q Q Q   H    H
|------------|-----------|
|------------|-----------|
|-4----4-2-4-|-2----2----|
|-4----4-2-4-|-0----1----|
|-2----2-0-2-|-----------|
|------------|-----------|
|
|      |-3-|
| H    Q Q Q   H    H
|------------|-----------|
|------------|-----------|
|-4----4-2-4-|-4----4----|
|-4----4-2-4-|-----------|
|-2----2-0-2-|-2----2----|
|------------|-----------|


 Interlude
  N.C.
  Gtrs I, II
                           ~      ~                             ~
  Q  Q   E  E  E E   +E  E Q  E E Q    Q  Q   E  E  E E   +E  E Q  E E E E
|------------------|-----------------|------------------|------------------|
|------------------|-----------------|------------------|------------------|
|------------------|-----------------|------------------|------------------|
|----------12------|-----------------|----------12------|------------------|
|-------10----10-7-|-(7)---5----4-5--|-------10----10-7-|-(7)---5----4-5-4-|
|-0--0-------------|-----0----0------|-0--0-------------|-----0----0-------|


  N.C.
                           ~      ~                      ~~~~~~~~~
  Q  Q   E  E  E E   +E  E Q  E E Q    Q  +E  +E    +Q   Q    +W
|------------------|-----------------|----------------------|--------|
|------------------|-----------------|----------------------|--------|
|------------------|-----------------|----------------------|--------|
|----------12------|-----------------|----------------------|--------|
|-------10----10-7-|-(7)---5----4-5--|-------------------3--|-(3)----|
|-0--0-------------|-----0----0------|-5--(5)-(5)b6r(5)--3--|-(3)----|


  N.C.
  Gtr I
  ~                             ~
  Q  +E  +E    +Q   Q    +H     H
|----------------------|-------------|
|----------------------|-------------|
|-------------------4--|-(4)----2----|
|----------------------|--------1----|
|-------------------2--|-(2)---------|
|-5--(5)-(5)b6r(5)-----|-------------|
|
| Gtr II
| ~                 ~~~~~~~~~~~~~~
| Q  +E  +E    +Q   Q    +H     H
|----------------------|-------------|
|----------------------|-------------|
|-------------------4--|-(4)----4----|
|----------------------|-------------|
|-------------------2--|-(2)----2----|
|-5--(5)-(5)b6r(5)-----|-------------|


  N.C.
  Gtrs I, II
                           ~      ~                             ~
  Q  Q   E  E  E E   +E  E Q  E E Q    Q  Q   E  E  E E   +E  E Q  E E E E
|------------------|-----------------|------------------|------------------|
|------------------|-----------------|------------------|------------------|
|------------------|-----------------|------------------|------------------|
|----------12------|-----------------|----------12------|------------------|
|-------10----10-7-|-(7)---5----4-5--|-------10----10-7-|-(7)---5----4-5-4-|
|-0--0-------------|-----0----0------|-0--0-------------|-----0----0-------|


                                        Bridge 2
  N.C.                                   C5         B5/F#B5/G
  Gtr I
                           ~
  Q  Q   E  E  E E   +E  E Q  E E E E    W          H    H
|------------------|------------------||----------|-----------|
|------------------|------------------||----------|-----------|
|------------------|------------------||-5--------|-4----4----|
|----------12------|------------------||-5--------|-4----4----|
|-------10----10-7-|-(7)---5----4-5-4-||-3--------|-2----2----|
|-0--0-------------|-----0----0-------||----------|-2----3----|
|
| Gtr II
|                          ~
| Q  Q   E  E  E E   +E  E Q  E E E E    W          H    H
|------------------|------------------||----------|-----------|
|------------------|------------------||----------|-----------|
|------------------|------------------||-5--------|-----------|
|----------12------|------------------||-5--------|-----------|
|-------10----10-7-|-(7)---5----4-5-4-||-3--------|-2----2----|
|-0--0-------------|-----0----0-------||----------|-2----3----|


  Q=108
  N.C.
 6/8
  Gtrs I, II
  PM--------------|
  S S S S E S S S S E   S S S S S S S S S S +E
|---------------------|-------------------------|
|---------------------|-------------------------|
|---------------------|-------------------------|
|---------------------|-------------------------|
|---------------------|-------------------------|
|-0-0-0-0---0-0-0-0---|-0-2-2-2-3-3-3-5-5-5-(5)-|


  Q=135                   Q=108
  C5          B5/F#B5/G   N.C.
 4/4                     6/8
  Gtr I
                          PM--------------|
  W           H    H      S S S S E S S S S E   S S S S S S S S S S +E
|-----------|-----------|---------------------|---------------------------|
|-----------|-----------|---------------------|---------------------------|
|-5---------|-----------|---------------------|---------------------------|
|-5---------|-----------|---------------------|---------------------------|
|-3---------|-2----2----|---------------------|---------------------------|
|-----------|-2----3----|-0-0-0-0---0-0-0-0---|-0-2-2-2-3-3-3-5-5-5-(5)---|
|
| Gtr II
|                         PM--------------|
| H    H      H    H      S S S S E S S S S E   S S S S S S S S S S +E
|-----------|-----------|---------------------|---------------------------|
|-----------|-----------|---------------------|---------------------------|
|-----------|-----------|---------------------|---------------------------|
|-----------|-----------|---------------------|---------------------------|
|-3---------|------2----|---------------------|---------------------------|
|------3----|-5---------|-0-0-0-0---0-0-0-0---|-0-2-2-2-3-3-3-5-5-5-(5)---|


   Verse
    Q=108
    N.C.
    Gtrs I, II
    E S S S S E S S S S   E S S S S S S S S +E
||----------------------|-----------------------|
||o---------------------|-----------------------|
||----------------------|-----5s4-4-4s5-5S7-(7)-|
||--3-3-3-3-3-3-3-3-3-3-|-3-3-------------------|
||o---------------------|-----3s2-2-2s3-3S5-(5)-|
||--1-1-1-1-1-1-1-1-1-1-|-1-1-------------------|


  E5                    N.C.
                        PM    PM
  E S S S S E S S S S   e E E e E E
|---------------------|--------------||
|---------------------|-------------o||
|---------------------|--------------||
|-2-2-2-2-2-2-2-2-2-2-|--------------||
|-2-2-2-2-2-2-2-2-2-2-|---2-----5-7-o||
|-0-0-0-0-0-0-0-0-0-0-|-0---3-0------||


   Pre-Chorus
    F5
    Gtr II
    E     S     S S S E   S S S S   E     S     S S S E   S S  S  S
    |     |     | | | |   | | | |   |     |     | | | |   | |  |  |
    /     /     / / / /   / / / /   /     /     / / / /   / /  /  /

    Gtr I
    PM----|       PM  PM            PM----|       PM  PM
    S T T T +T  S S S S S S S S S   S T T T +T  S S S S S S S +E
||--------------------------------|---------------------------------|
||o-------------------------------|---------------------------------|
||--------------------------------|---------------------------------|
||--------------------------------|---------------------------------|
||o-------------3---2---2-3-5-3-2-|-------------3---2---2-3-5-(5)---|
||--1-1-1-1-(1)---1---1-----------|-1-1-1-1-(1)---1---1-------------|


  E5
  E     S     S S S E   S S S S   E     S     S S S E   S S  S  S
  |     |     | | | |   | | | |   |     |     | | | |   | |  |  |
  /     /     / / / /   / / / /   /     /     / / / /   / /  /  /

  PM----|       PM  PM            PM----|       PM  PM
  S T T T +T  S S S S S S S S S   S T T T +T  S S S S S S S +E
|-------------------------------|----------------------------------||
|-------------------------------|---------------------------------o||
|-------------------------------|----------------------------------||
|-----------------2---4h5h7p5p4-|-----------------2----------------||
|-------------3-----------------|-------------3-------3-2-1-(1)---o||
|-0-0-0-0-(0)---0---0-----------|-0-0-0-0-(0)---0---0--------------||


   Chorus
    N.C.
    Gtr I
     S  S  S  S  S  S  S  S  S  S  S  S    S  S  S  S  S  S S S S S  S  S
||--------------------------------------|---------------------------------|
||o-------------------------------------|---------------------------------|
||--12-12-12-12-12-12-12-12-12-12-12-12-|-11-11-11-11-11-11---------------|
||--10-10-10-10-10-10-10-10-10-10-10-10-|-10-10-10-10-10-10-7s9-9-9s10-10-|
||o-------------------------------------|---------------------------------|
||--------------------------------------|-------------------5s7-7-7s=8--8-|
|
|   Gtr II
|    E     S  S  S  S  E     S  S  S  S    E     S  S  S  S S S S S  S  S
||--------------------------------------|---------------------------------|
||o-------------------------------------|---------------------------------|
||--------------------------------------|---------------------------------|
||--10----10-10-10-10-10----10-10-10-10-|-10----10-10-10-10-7s9-9-9s10-10-|
||o-------------------------------------|---------------------------------|
||---8-----8--8--8--8--8-----8--8--8--8-|--8-----8--8--8--8-5s7-7-7s=8--8-|


                       1.
  E5                    N.C.
  E S S S S E S S S S   S S S S S S S S S S +E
|---------------------|----------------------------||
|---------------------|---------------------------o||
|---------------------|----------------------------||
|-2-2-2-2-2-2-2-2-2-2-|----------------------------||
|-2-2-2-2-2-2-2-2-2-2-|---------------------------o||
|-0-0-0-0-0-0-0-0-0-0-|-0-2-2-2-3-3-3-5-5-5-(5)----||
|
| E S S S S E S S S S   S S S S S S S S S S +E
|---------------------|----------------------------||
|---------------------|---------------------------o||
|---------------------|----------------------------||
|-2-2-2-2-2-2-2-2-2-2-|----------------------------||
|-2-2-2-2-2-2-2-2-2-2-|---------------------------o||
|-0-0-0-0-0-0-0-0-0-0-|-0-2-2-2-3-3-3-5-5-5-(5)----||


 Outro
  2.
  Dsus2 Em6/C#  C          G5    D/F#
  Gtr I
   ~~~~~~~~~~~~~~~~~~~~~~~~~~~~~~~~~
   Q.    Q.      H.         Q.   Q.
|-------------|----------|------------|
|-------------|----------|------------|
|-------------|----------|------------|
|-------------|----------|-------9----|
|--7-----7----|--7-------|-10---------|
|-------------|----------|------------|
|
| Gtr II
|  Q.    Q.      H.         Q.   Q.
|-------------|----------|------------|
|-(5)---(5)---|-(5)------|------------|
|--7-----6----|--5-------|------------|
|--7-----5----|--5-------|--5----4----|
|--5-----4----|--3-------|--5----5----|
|-------------|----------|--3----2----|


  E5        Dsus2 Em6/C#  C          G5    D/F#
  ~~~~~~~~~~~~~~~~~~~~~~~~~~~~~~~~~~~~~~~
  H.         Q.    Q.      H.         Q.   E. S S S
|---------|-------------|----------|----------------|
|---------|-------------|----------|----------------|
|---------|-------------|----------|----------------|
|---------|--------9----|----------|----------------|
|-7-------|-10----------|--7-------|-10----9--------|
|---------|-------------|----------|----------0-3p0-|
|
| H.         Q.    Q.      H.         Q.   Q.
|---------|-------------|----------|----------------|
|---------|-(5)---(5)---|-(5)------|----------------|
|-9-------|--7-----6----|--5-------|----------------|
|-9-------|--7-----5----|--5-------|--5----4--------|
|-7-------|--5-----4----|--3-------|--5----5--------|
|---------|-------------|----------|--3----2--------|


  E5              Dsus2     Em6/C#        C                 G5      D/F#
                                  |-3-|                                  |-3-|
  S E E S E E E    S  E E S  E  E S S S    S  E E S E E E   S E E S E  E S S S
|---------------|-----------------------|-----------------|--------------------|
|---------------|-----------------------|-----------------|--------------------|
|---------------|-----------------------|-----------------|--------------------|
|---------------|------------5----------|-----------------|---------5----------|
|---------------|--5h=7-7-7-------------|-----------------|-5h7-7-7------------|
|-3p0-0-0-5-6-7-|---------------7-6h7p6-|--3p=0-0-0-5-6-7-|------------7-6h7p6-|
|
| H.               Q.        Q.            H.               Q.      Q.
|---------------|-----------------------|-----------------|--------------------|
|---------------|-(5)-------(5)---------|-(5)-------------|--------------------|
|-9-------------|--7---------6----------|--5--------------|--------------------|
|-9-------------|--7---------5----------|--5--------------|-5-------4----------|
|-7-------------|--5---------4----------|--3--------------|-5-------5----------|
|---------------|-----------------------|-----------------|-3-------2----------|


  E5              Dsus2     Em6/C#
  Gtr III
  H.               H.
|---------------|-----------------------|
|---------------|-----------------------|
|---------------|-----------------------|
|---------------|-----------------------|
|---------------|-----------------------|
|---------------|-----------------------|
|
| Gtr I
|                                 |-3-|
| S E E S E E E    S  E E S  E  E S S S
|---------------|-----------------------|
|---------------|-----------------------|
|---------------|-----------------------|
|---------------|------------5----------|
|---------------|--5h=7-7-7-------------|
|-3p0-0-0-5-6-7-|---------------7-6h7p6-|
|
| Gtr II
| H.               Q.        Q.
|---------------|-----------------------|
|---------------|-(5)-------(5)---------|
|-9-------------|--7---------6----------|
|-9-------------|--7---------5----------|
|-7-------------|--5---------4----------|
|---------------|-----------------------|


  C                 G5      D/F#
   H.               H           Q
|-----------------|----------------------|
|-----------------|----------------------|
|-----------------|------------12\-------|
|-----------------|----------------------|
|-----------------|----------------------|
|-----------------|----------------------|
|
|                                  |-3-|
|  S  E E S E E E   S E E S E   E  S S S
|-----------------|----------------------|
|-----------------|----------------------|
|-----------------|----------------------|
|-----------------|---------5------------|
|-----------------|-5h7-7-7--------------|
|--3p=0-0-0-5-6-7-|-------------7--6h7p6-|
|
|  H.               Q.      Q.
|-----------------|----------------------|
|-(5)-------------|----------------------|
|--5--------------|----------------------|
|--5--------------|-5-------4------------|
|--3--------------|-5-------5------------|
|-----------------|-3-------2------------|


 Out-Guitar Solo 2
  E5              D5          C
  ~~
  H.              E   E   E   Q.
|---------------|------------------------|
|---------------|------------------------|
|---------------|-------------7----------|
|-9-------------|-9---8---9--------------|
|---------------|------------------------|
|---------------|------------------------|
|
|                                  |-3-|
| S E E S E E E   S E   E   S E  E S S S
|---------------|------------------------|
|---------------|------------------------|
|---------------|------------------------|
|---------------|-------------5----------|
|---------------|-5h7---7---7------------|
|-3p0-0-0-5-6-7-|----------------7-6h7p6-|
|
| H.              Q.          Q.
|---------------|------------------------|
|---------------|------------------------|
|-9-------------|-7-----------6----------|
|-9-------------|-7-----------5----------|
|-7-------------|-5-----------4----------|
|---------------|------------------------|


  C5                      G5      D/F#
                          ~~
                  |-3-|
  Q     E   S S E S S S   H.
|-----------------------|--------------------|
|-----------------------|--------------------|
|-----------7h9---------|-9------------------|
|-8-----9-------9-8h9p8-|--------------------|
|-----------------------|--------------------|
|-----------------------|--------------------|
|
|                                      |-3-|
| S E E   S E   E E       S E E S E  E S S S
|-----------------------|--------------------|
|-----------------------|--------------------|
|-----------------------|--------------------|
|-----------------------|---------5----------|
|-----------------------|-5h7-7-7------------|
|-3p0-0---0-5---6-7-----|------------7-6h7p6-|
|
| H.                      Q.      Q.
|-----------------------|--------------------|
|-----------------------|--------------------|
|-5---------------------|--------------------|
|-5---------------------|-5-------4----------|
|-3---------------------|-5-------5----------|
|-----------------------|-3-------2----------|


  E5                                 D5                   C5(type 2)
                                                          ~~~~~~~~~~~~
                            |-3--|    |--3---|
  S  S  S  S E    S S  S  S S  S S    S  S   S  S S  S  S Q.
|----------------------------------|---------------------------------|
|----------------------------------|---------------------------------|
|-9-11-12-11-9------9--------------|---------------------------------|
|----------------12---12-10-9h10p9-|-12p10p==9----9------------------|
|----------------------------------|-----------12---12-10-9----------|
|----------------------------------|---------------------------------|
|
|                                                              |-3-|
| S  E     E   S  E    E    E         S    E      E     S E  E S S S
|----------------------------------|---------------------------------|
|----------------------------------|---------------------------------|
|----------------------------------|---------------------------------|
|----------------------------------|----------------------5----------|
|----------------------------------|--5h===7------7-----7------------|
|-3p=0-----0---0--5----6----7------|-------------------------7-6h7p6-|
|
| H.                                  Q.                  Q.
|----------------------------------|---------------------------------|
|----------------------------------|---------------------------------|
|-9--------------------------------|--7-------------------6----------|
|-9--------------------------------|--7-------------------5----------|
|-7--------------------------------|--5-------------------4----------|
|----------------------------------|---------------------------------|


  C5               G5       D/F#
 ~~~~~~~~~~~~~~~~~~~~~~
  +H.              +H           S  S  E
|----------------|-------------12p10---------|
|----------------|-------------------12------|
|----------------|---------------------------|
|----------------|---------------------------|
|-(9)------------|-(9)-----------------------|
|----------------|---------------------------|
|
|                                     |-3-|
|  S E E S E E E    S E E S E   E     S S S
|----------------|---------------------------|
|----------------|---------------------------|
|----------------|---------------------------|
|----------------|----------5----------------|
|----------------|--5h7-7-7------------------|
|--3p0-0-0-5-6-7-|--------------7-----6h7p6--|
|
|  H.               Q.      Q.
|----------------|---------------------------|
|----------------|---------------------------|
|--5-------------|---------------------------|
|--5-------------|--5-------4----------------|
|--3-------------|--5-------5----------------|
|----------------|--3-------2----------------|


  E5                               D5             C5(type 2)
    ~~~~
                      |--3--|
   +Q      +E      E  S  S  S  E    E    E    E    E   Q
|--------------------------------|-----------------------------|
|-(12)----(12)\------------------|-----------------------------|
|-----------------14-12h14p12-11-|-12---14---12---11-----------|
|--------------------------------|--------------------14-------|
|--------------------------------|-----------------------------|
|--------------------------------|-----------------------------|
|
|                                                        |-3-|
|   S E E       S  E  E        E    S E    E    S  E   E S S S
|--------------------------------|-----------------------------|
|--------------------------------|-----------------------------|
|--------------------------------|-----------------------------|
|--------------------------------|-----------------5-----------|
|--------------------------------|--5h7----7----7--------------|
|---3p0-0-------0--5--6--------7-|---------------------7-6h7p6-|
|
|   H.                              Q.             Q.
|--------------------------------|-----------------------------|
|--------------------------------|-----------------------------|
|---9----------------------------|--7--------------6-----------|
|---9----------------------------|--7--------------5-----------|
|---7----------------------------|--5--------------4-----------|
|--------------------------------|-----------------------------|


  C5                        G5              D/F#
   +Q      S  S  Q    S S    E    S  S  E    Q.
|-------------------------|-----------------------------|
|-------------------------|-----------------10----------|
|--------------------11-9-|-11---12-11-12---------------|
|-(14)----14-12-14--------|-----------------------------|
|-------------------------|-----------------------------|
|-------------------------|-----------------------------|
|
|                                                 |-3-|
|   S E E     S  E E  E      S E     E    S  E  E S S S
|-------------------------|-----------------------------|
|-------------------------|-----------------------------|
|-------------------------|-----------------------------|
|-------------------------|------------------5----------|
|-------------------------|--5h7-----7----7-------------|
|---3p0-0-----0--5-6--7---|---------------------7-6h7p6-|
|
|   H.                       Q.              Q.
|-------------------------|-----------------------------|
|-------------------------|-----------------------------|
|---5---------------------|-----------------------------|
|---5---------------------|--5---------------4----------|
|---3---------------------|--5---------------5----------|
|-------------------------|--3---------------2----------|


  E5                                D5                    C
                                                      ~~~~~~~~~~~~~~~~
                    |--3--|          |---3---|
   +Q      S  S  E  S  S  S  S  S    S  S    S  S  S  H
|------------12-15-12h15p12-------|----------------------------------|
|-(10)----10----------------13-12-|-13p12h==15-13-12-10--------------|
|---------------------------------|----------------------------------|
|---------------------------------|----------------------------------|
|---------------------------------|----------------------------------|
|---------------------------------|----------------------------------|
|
|                                                              |-3-|
|   S E E     S  E  E        E       S    E        E    S E  E S S S
|---------------------------------|----------------------------------|
|---------------------------------|----------------------------------|
|---------------------------------|----------------------------------|
|---------------------------------|-----------------------5----------|
|---------------------------------|--5h===7--------7----7------------|
|---3p0-0-----0--5--6--------7----|--------------------------7-6h7p6-|
|
|   H.                               Q.                   Q.
|---------------------------------|----------------------------------|
|---------------------------------|----------------------------------|
|---9-----------------------------|--7--------------------6----------|
|---9-----------------------------|--7--------------------5----------|
|---7-----------------------------|--5--------------------4----------|
|---------------------------------|----------------------------------|


  C5               G5      D/F#
 ~~~~~~~~~~~~~~~~~~~~~
   H.              H.
|----------------|---------------------*|
|----------------|---------------------*|
|-12-------------|-9-------------------*|
|----------------|---------------------*|
|----------------|---------------------*|
|----------------|---------------------*|
|
|                               |-3-|
|  S E E S E E E   S E E S E  E S S S
|----------------|---------------------*|
|----------------|---------------------*|
|----------------|---------------------*|
|----------------|---------5-----------*|
|----------------|-5h7-7-7-------------*|
|--3p0-0-0-5-6-7-|------------7-6h7p6--*|
|
|  H.              Q.      Q.
|----------------|---------------------*|
|----------------|---------------------*|
|--5-------------|---------------------*|
|--5-------------|-5-------4-----------*|
|--3-------------|-5-------5-----------*|
|----------------|-3-------2-----------*|



Duration Legend
---------------
W - whole; H - half; Q - quarter; E - 8th; S - 16th; T - 32nd; X - 64th; a - acciaccatura
+ - note tied to previous; . - note dotted; .. - note double dotted
Uncapitalized letters represent notes that are staccato (1/2 duration)
Irregular groupings are notated above the duration line
Duration letters will always appear directly above the note/fret number it represents the
duration for.  Duration letters with no fret number below them represent rests.  Multi-
bar rests are notated in the form Wxn, where n is the number of bars to rest for.  Low
melody durations appear below the staff

Tablature Legend
----------------
 h   - hammer-on
 p   - pull-off
 b   - bend
 pb  - pre-bend
 r   - bend release (if no number after the r, then release immediately)
 /\  - slide into or out of (from/to "nowhere")
 s   - legato slide
 S   - shift slide
 - natural harmonic
[n]  - artificial harmonic
n(n) - tapped harmonic
 ~   - vibrato
 tr  - trill
 T   - tap
 TP  - trem. picking
 PM  - palm muting
\n/  - tremolo bar dip; n = amount to dip
 \n  - tremolo bar down
 n/  - tremolo bar up
/n\  - tremolo bar inverted dip
 =   - hold bend; also acts as connecting device for hammers/pulls
 <> - volume swell (louder/softer)
 x   - on rhythm slash represents muted slash
 o   - on rhythm slash represents single note slash

Misc Legend
-----------
 |  - bar
||  - double bar
||o - repeat start
o|| - repeat end
*|  - double bar (ending)
 :  - bar (freetime)
 $  - Segno
 &  - Coda
Tempo markers -  = BPM(8/16=s8/s16), where s8 = swing 8ths, s16 = swing 16ths


            
            
Suggest correction
Creating personal tab
Creating personal tab
You can edit any tab online and save it as your Personal.

You can edit, replace or remove any tab part or add personal notes – all changes will be seen only by you.

Personal tabs can be accessed anytime from any device, even offline.
Learn more »
Give kudos to tab author, rate the tab!
1 2 3 4 5
comments
print report bad tab
guest
You may want to rate the tab now too:
select rating
Wanna post a correction for this tab? Suggest correction