Oops, an error
Loading. Please wait.

10000 Weight In Gold intro tab

version 1
version 1

Intro

Whole song

1,171 views 1 this week
no commentswrite comment
1 2 3 4 5
2 more votes to show rating
add to favorites
×
Save as Personal and add changes to this tab that will be seen only by you. Learn more ›
×
You can save this tab as Personal to edit and correct it or add notes. All changes will be seen only by you. Learn more »
launch autoscroll
font size
0
reset
how to read this tab
guitar tuner
edit
Autoscroll
slow
fast
+/-
esc
set tempo
stop
-------------------------------------------------------------------------------
                10,000 Weight in Gold - The Head and The Heart
-------------------------------------------------------------------------------
There are a few versions of the finger-style portion of this song out there, and none of 
them were quite right.
So I was inspired to make my first tab!

This is how you play the intro (the first few verses and the ending are similar variations)

Tuning: Standard Tuning

Capo 1

e|-------0-----------------------0--------------|
B|-----------------0h1--------------------1-----|
G|--------------------2------------------2--0---|
D|-2-----------2--------------------------------|
A|--------------0----------0-----------0--------|
E|-3--------------------------------------------|

e|-------0-----------------------0----------0---|
B|-----------------0h1-------------------1h3-1--|
G|--------------------2-------------------------|
D|-2-----------2--------------------------------|
A|--------------0----------0--------------------|
E|-3--------------------------------------------|

e|-------0-----------------------0--------------|
B|-----------------0h1--------------------1-----|
G|--------------------2------------------2--0---|
D|-2-----------2--------------------------------|
A|--------------0----------0-----------0--------|
E|-3--------------------------------------------|

e|-------0-----------------------0--------------|
B|-----------------0h1----------------------1---|
G|--------------------2------------------0h2-0--|
D|-2-----------2--------------------------------|
A|--------------0----------0--------------------|
E|-3--------------------------------------------|

************************************

| /   slide up
| \   slide down
| h   hammer-on
| p   pull-off
| ~   vibrato
| +   harmonic
| x   Mute note
| b   Bend
| pb  Pre-bend
| br  Bend release
| pbr Pre-bend release
| brb Bend release bend

************************************

            
            
Suggest correction
Creating personal tab
Creating personal tab
You can edit any tab online and save it as your Personal.

You can edit, replace or remove any tab part or add personal notes – all changes will be seen only by you.

Personal tabs can be accessed anytime from any device, even offline.
Learn more »
Give kudos to tab author, rate the tab!
1 2 3 4 5
comments
print report bad tab
guest
You may want to rate the tab now too:
select rating
Wanna post a correction for this tab? Suggest correction