Oops, an error
Loading. Please wait.

Library Magic chords

version 3
version 3

Whole song

  • Capo 2 bridge can be played with either Em or G ba... Show more
622 views 24 this week
no commentswrite comment
1 2 3 4 5
1 last vote to show rating
add to favorites
×
Save as Personal and add changes to this tab that will be seen only by you. Learn more ›
×
You can save this tab as Personal to edit and correct it or add notes. All changes will be seen only by you. Learn more »
launch autoscroll
font size
0
reset
transpose
0
reset
simplify chords
display chords
guitar tuner
edit
Autoscroll
slow
fast
+/-
esc
set tempo
stop
Strumming
There is no strumming pattern for this song yet. and get +5 IQ
      Em            A7              D             G
e|----0-------| |----0------|  |----2------| |----3------|            
B|---------0--| |--------2--|  |--------3--| |--------0--|           
G|-------0----| |------0----|  |------2----| |------0----|               
D|------------| |-----------|  |--0--------| |-----------|                      
A|--2---------| |--0--------|  |-----------| |-----------|                 
E|------------| |-----------|  |-----------| |--3--------|                               

[Intro]
Em 

[Verse 1]
Em                      A7
I'm drawn to that sorta library magic
D                                 G
Whisperin' through the dusty aisles
Em
Watchin' all the thinkers read
A7
Tryin' to keep a grown mans quiet's like
D
Pulling teeth on a winter's eve
G
Cracks and pulls and unfamiliar roads
Em           A7           D
I'm on this one to find out

[Verse 2]
Em              A7
Veggie gas and brothers harass
D                        G
Can't stay healthy in a cloud of eyes
Em              A7
Listenin' to my every move
      D
Just tryin' to survive
Em                A7
This self-imposed adventure
      D
That selfishness drives
D                    Em
I can barely keep my head above the blue
                  A7
Tryin' to keep it off me and you

[Chorus]
e|----2-------2-------2---------2------|
B|--------3------3-------3---------3---|
G|------2------2-------2---------2-----|
D|---0---------------------------------|
A|---------4--------2---------0--------|
E|-------------------------------------|
 But I can see the sunshine's rays

G                      A7
Gleaming through the clear water

e|-----2--------2----------2---------2--------|
B|---------3---------3----------3---------3---|
G|-------2--------2----------2---------2------|
D|---0----------------------------------------|
A|------------4----------2---------0----------|
E|--------------------------------------------|
    Telling me you gotta hop in for this 
     G
    chapter's ride

           Em      A7            
There will always be better days
    
e|-----2--------2----------2---------2--------|
B|---------3---------3----------3---------3---|
G|-------2--------2----------2---------2------|
D|---0----------------------------------------|
A|------------4----------2---------0----------|
E|--------------------------------------------|

           Em      A7            D
There will always be better days

[Verse 3]
Em                A7
Makin' music is what we do
D                     G
Tryin' to weave the patterns for me and you
Em                  A7                   D
Tryin' to make the grasses breathe and a grown man cry
                   Em
Truth and life is where I gleam
                 A7
Tangled up in a funnel's wind
                   Em
Tryin' to come out walkin'
                  A7
Understand it's beyond me talkin'
                   Em
Tryin' to come out walkin'
                   A7
Understand it's beyond me talkin'

[Chorus]
e|----2-------2-------2---------2------|
B|--------3------3-------3---------3---|
G|------2------2-------2---------2-----|
D|---0---------------------------------|
A|---------4--------2---------0--------|
E|-------------------------------------|
 But I can see the sunshine's rays
G                      A7
Gleaming through the clear water

e|-----2--------2----------2---------2--------|
B|---------3---------3----------3---------3---|
G|-------2--------2----------2---------2------|
D|---0----------------------------------------|
A|------------4----------2---------0----------|
E|--------------------------------------------|
    Telling me you gotta hop in for this 
     G
    chapter's ride
           Em      A7            
There will always be better days
    
e|-----2--------2----------2---------2--------|
B|---------3---------3----------3---------3---|
G|-------2--------2----------2---------2------|
D|---0----------------------------------------|
A|------------4----------2---------0----------|
E|--------------------------------------------|
           Em      A7            D
There will always be better days

[Bridge]
Em                A7
Bein' alone isn't lonely
D                        G
It's sought after like a holiday
Em              
Bein' home is my vacation
A7
Postcard dreams of a full-sized bed

[Verse 4]
Em                    A7
Quit the band one too many times
D                 G
Serious enough to get a rise
Em                         A7           D   
But he'll hop in the next mornin' for another drive
D
That's a promise
Em                 A7                   D             G
The best advice we ever received is for you and me to stay together
Em                             A7
It's easy to begin and hard to end
Em                                      A7
I'm just glad to go through it all with you as friends

[Chorus]
e|----2-------2-------2---------2------|
B|--------3------3-------3---------3---|
G|------2------2-------2---------2-----|
D|---0---------------------------------|
A|---------4--------2---------0--------|
E|-------------------------------------|
 But I can see the sunshine's rays
G                      A7
Gleaming through the clear water

e|-----2--------2----------2---------2--------|
B|---------3---------3----------3---------3---|
G|-------2--------2----------2---------2------|
D|---0----------------------------------------|
A|------------4----------2---------0----------|
E|--------------------------------------------|
    Telling me you gotta hop in for this 
     G
    chapter's ride
           Em      A7            
There will always be better days
    
e|-----2--------2----------2---------2--------|
B|---------3---------3----------3---------3---|
G|-------2--------2----------2---------2------|
D|---0----------------------------------------|
A|------------4----------2---------0----------|
E|--------------------------------------------|
           Em      A7           
There will always be better days

e|-----2--------2----------2---------2--------|
B|---------3---------3----------3---------3---|
G|-------2--------2----------2---------2------|
D|---0----------------------------------------|
A|------------4----------2---------0----------|
E|--------------------------------------------|
           Em      A7           
There will always be better days
        (strum D Chord)

            
            
Suggest correction
Creating personal tab
Creating personal tab
You can edit any tab online and save it as your Personal.

You can edit, replace or remove any tab part or add personal notes – all changes will be seen only by you.

Personal tabs can be accessed anytime from any device, even offline.
Learn more »
Give kudos to tab author, rate the tab!
1 2 3 4 5
comments
print report bad tab
guest
You may want to rate the tab now too:
select rating
Wanna post a correction for this tab? Suggest correction