Oops, an error
Loading. Please wait.

Keep Your Eyes Ahead tab

version 2
version 2

Whole song

2,260 views 3 this week
1 commentread comment
1 2 3 4 5
1 last vote to show rating
add to favorites
×
Save as Personal and add changes to this tab that will be seen only by you. Learn more ›
×
You can save this tab as Personal to edit and correct it or add notes. All changes will be seen only by you. Learn more »
launch autoscroll
font size
0
reset
how to read this tab
guitar tuner
edit
Autoscroll
slow
fast
+/-
esc
set tempo
stop
This song really is not too hard at all, But it's catchy as Hell!


Guitar 1
e--------------------------------------0-----0-------|I
B------0-----0---------0-----0------0---0-0---0-0----|I
G-------10--9-----------11--9--------6-----6---------|I
D----11---11---------12---12-------7--7-----7--7-----|I
A--11--------------12-------------7------7-----------|I
E-9--------------10--------------5-------------------|I

Guitar 2/Digital Delay w/ Reverb and other fun stuff..

e-----------------------------7777-7777----|I
B------------------------------------------|I
G-7777-6666-4444-6666-6(Ring)--------------|I
D------------------------------------------|I
A------------------------------------------|I
E------------------------------------------|I


That is the main riff through out the whole song.

Then He goes into some strumming with the same chords

e-0-----0-----0---------|I
B-0-----0-----0---------|I
G-10----11----6---------|I
D-11-X8-12-X8-7-X12-----|I
A-11----12----7---------|I
E-9-----10----5---------|I

And pick around when strumming it yo..


Well, that is pretty much it, that and a lot of effects.

Enjoy....


Tabbed by:
-Broborn

(Questions- Broborn@gmail.com)

            
            
Suggest correction
Creating personal tab
Creating personal tab
You can edit any tab online and save it as your Personal.

You can edit, replace or remove any tab part or add personal notes – all changes will be seen only by you.

Personal tabs can be accessed anytime from any device, even offline.
Learn more »
Give kudos to tab author, rate the tab!
1 2 3 4 5
comments
print report bad tab
1 comment total.
+1 reply
appstategeetar 24 Jul 16, 2016 09:50 PM

This song has such a neat sounding guitar riff. I have been trying to figure out how this was played for a while now. This tab is spot-on. Beautiful work!!

guest
Wanna post a correction for this tab? Suggest correction