Oops, an error
Loading. Please wait.

Hurtin Time tab

version 2
version 2

Whole song

662 views 1 this week
no commentswrite comment
1 2 3 4 5
2 more votes to show rating
add to favorites
×
Save as Personal and add changes to this tab that will be seen only by you. Learn more ›
×
You can save this tab as Personal to edit and correct it or add notes. All changes will be seen only by you. Learn more »
launch autoscroll
font size
0
reset
how to read this tab
guitar tuner
edit
Autoscroll
slow
fast
+/-
esc
set tempo
stop
Author
Band: The Hellacopters
Song: Hurtin' Time
Album: High Visibility (Track 12)
Tuning: tune down 1/2 step
Tabbed by Marc
questions to: al_katzone@web.de

That's the right version + solos (foreget my other tab^^)!!!

|---------------------------------------------------------------| x2
|---------------------------------------------------------------|
|------------1010------7-7777-55-1010-1212----------------------|
|---77777-55-1010-1010-7-7777-55-1010-1212----------------------|
|---77777-55--8-8-1010-5-5555-55--8-8-1010----------------------|
|---55555-55-------8-8------------------------------------------|

|---------------------------------------------------------------|
|---------------------------------------------------------------|
|---9--10--9--10--9--10--7777-----------------------------------|
|---9--10--9--10--9--10--7777-----33-55-------------------------|
|---7---8--7---8--7---8--5555/3h1-33-55-------------------------|
|---------------------------------11-33-------------------------|

|---------------------------------------------------------------|
|---------------------------------------------------------------|
|---9-999--10-101010---------7777-------------------------------|
|---9-999--10-101010--(x3)---7777-----33-55---------------------|
|---7-777---8--8-8-8---------5555/3h1-33-55---------------------|
|-------------------------------------11-33---------------------|

|---------------------------------------------------------------| x2
|---------------------------------------------------------------|
|------------1010------7-7777-55-1010-1212----------------------|
|---77777-55-1010-1010-7-7777-55-1010-1212----------------------|
|---77777-55--8-8-1010-5-5555-55--8-8-1010----------------------|
|---55555-55-------8-8------------------------------------------|

|---------------------------------------------------------------|
|---------------------------------------------------------------|
|---9-999--10-101010---------7777-------------------------------|
|---9-999--10-101010--(x3)---7777-----33-55---------------------|
|---7-777---8--8-8-8---------5555/3h1-33-55---------------------|
|-------------------------------------11-33---------------------|

|---------------------------------------------------------------| x2
|---------------------------------------------------------------|
|------------1010------7-7777-55-1010-1212----------------------|
|---77777-55-1010-1010-7-7777-55-1010-1212----------------------|
|---77777-55--8-8-1010-5-5555-55--8-8-1010----------------------|
|---55555-55-------8-8------------------------------------------|

|---------------------------------------------------------------|
|---------------------------------------------------------------|
|-------1010------7~--1010-1212---------------------------------|
|---7~--1010-1010-7~--1010-1212---------------------------------|
|---7~---8-8-1010-5~---8-8-1010---------------------------------|
|---5~--------8-8-----------------------------------------------|

|---------------------------------------------------------------|
|---------------------------------------------------------------|
|------------1010------7-7777-55-1010-1212----------------------|
|---77777-55-1010-1010-7-7777-55-1010-1212----------------------|
|---77777-55--8-8-1010-5-5555-55--8-8-1010----------------------|
|---55555-55-------8-8------------------------------------------|

|---------------------|--------------------|--------------------|
|----8-----8------8---|--7------7------7---|--------------------|
|--------9-----9----9-|------7------7----7-|-----6-----6----7-5-|
|------9-----9--------|----7------7--------|-7------5-------7-5-|
|---7-----7------7----|-5------5-----5-----|----7-----7--7--5-3-|
|---------------------|--------------------|-5-----5------------|
+
|---------------------------------------------------------------|
|---------------------------------------------------------------|
|---9-------------------7-----------------------------------7-5-|
|---9-------------------7--------------------7--------------7-5-|
|---7-------------------5--------------------7--------------5-3-|
|--------------------------------------------5------------------|

Solo 1
|---------------------------------------------------------------|
|---------------------------------------------------------------|
|-14b16b14-12-14b16~--14b16b14-12-14p12--------------14p13p12---|
|---------------------------------------14-12-14--14------------|
|---------------------------------------------------------------|
|---------------------------------------------------------------|

|-----------15-------(x6)--15--17-(x8)---19-(x8)----22bb~-------|
|--------------17b19-(  )---------------------------------------|
|---------------------------------------------------------------|
|-14-12-14------------------------------------------------------|
|---------------------------------------------------------------|
|---------------------------------------------------------------|

play this under it
|---------------------------------------------------------------|
|---------------------------------------------------------------|
|---9--------7-----------------5------7-------------------------|
|---9-(x16)--7-(x16)--7--------5-(x8)-7-(x8)--------------------|
|---7--------5--------7-(x16)--3------5-------------------------|
|---------------------5-----------------------------------------|

|---------------------------------------------------------------| x4
|---------------------------------------------------------------|
|------------1010------7-7777-55-1010-1212----------------------|
|---77777-55-1010-1010-7-7777-55-1010-1212----------------------|
|---77777-55--8-8-1010-5-5555-55--8-8-1010----------------------|
|---55555-55-------8-8------------------------------------------|

Solo 2 after the 2nd intro-thing
|-------5-----5-----5-----5----------8-10-10b12b10-8-10bb-------|
|-------5-----5-----5-----5-----8/10----------------------------|
|-5/7b9---7b9---7b9---7b9---------------------------------------|
|---------------------------------------------------------------|
|---------------------------------------------------------------|
|---------------------------------------------------------------|

|-10p8----8-----------------13b---------------------------------|
|------10---10-8-------8-10-------------------------------------|
|----------------9-7-9------------------------------------------|
|---------------------------------------------------------------|
|-----------------------the rest for this is still in work!!!---|
|---------------------------------------------------------------|

|---------------------------------------------------------------|
|---------------------------------------------------------------|
|---9-999--10-101010---------7777-------------------------------|
|---9-999--10-101010--(x3)---7777-----33-55---------------------|
|---7-777---8--8-8-8---------5555/3h1-33-55---------------------|
|-------------------------------------11-33---------------------|

|---------------------------------------------------------------| x4
|---------------------------------------------------------------|
|------------1010------77777-55-1010-1212-----------------------|
|---77777-55-1010-1010-77777-55-1010-1212--------------------7~~|
|---77777-55--8-8-1010-55555-55--8-8-1010-after the last one-7~~|
|---55555-55-------8-8---------------------------------------5~~|

That's it! Pretty easy to play!
Solo 2 & 3 come tommorrow!
Cheers & Beers from Germany!

PS: There will be more tabs for this album!
    And if you want me to tab other Hellacopters Songs, just ask me!

            
            
Suggest correction
Creating personal tab
Creating personal tab
You can edit any tab online and save it as your Personal.

You can edit, replace or remove any tab part or add personal notes – all changes will be seen only by you.

Personal tabs can be accessed anytime from any device, even offline.
Learn more »
Give kudos to tab author, rate the tab!
1 2 3 4 5
comments
print report bad tab
guest
You may want to rate the tab now too:
select rating
Wanna post a correction for this tab? Suggest correction