Oops, an error
Loading. Please wait.

All Alone tab

173 views 1 this week
no commentswrite comment
1 2 3 4 5
3 more votes to show rating
add to favorites
×
Save as Personal and add changes to this tab that will be seen only by you. Learn more ›
×
You can save this tab as Personal to edit and correct it or add notes. All changes will be seen only by you. Learn more »
launch autoscroll
font size
0
reset
how to read this tab
guitar tuner
edit
Autoscroll
slow
fast
+/-
esc
set tempo
stop
Difficulty
-------------------------------------------------------------------------------
                             SO ALONE - The Hippos
-------------------------------------------------------------------------------
Tabbed by:Juan "mas Puto" Galvan
Email:myspace.com/1_crazy_beaner

Tuning:standard

e|---1---111-------0---000-|          Acoustic intro
B|---1---111-------1---111-|
G|---2---222-------0---000-|          play this 3x
D|---3---333-------2---222-|
A|---3---333-------3---333-|
E|---1---111---------------|

e|---0---000-------2-|
B|---0---000-------3-|                End with this
G|---0---000-------2-|
D|---2---222---------|
A|---2---222---------|
E|---0---000---------|

     The first part of the verse is bass, drums, trumpets and other sh*t
     But I play this with no distortion very lightly if that makes any sense
e|----------------------------|
B|----------------------------|
G|---5555---------------------|  First part of verse 2x
D|---5553---2222---3333---555-|
A|---3333---2222---3333---555-|
E|----------0000---1111---333-|


e|-------------------|
B|-------------------|         Second part of the verse with distortion 3x
G|-------55---5---55-|
D|---3---55---5---55-|
A|---3---33---3---33-|
E|---1---------------|

e|------------------------|
B|------------------------|    End with this just before chorus
G|------------------------|
D|---33333333----55555555-|
A|---33333333----55555555-|
E|---11111111----33333333-|

e|--------------------------------------------------------|
B|--------------------------------------------------------| Chorous
G|---5555------------------------5555---------------------|
D|---5555---2222---333333---55---5555--2222---333333---55-|
A|---3333---2222---333333---55---3333--2222---333333---55-|
E|----------0000---111111---33---------0002---111111---33-|

e|---------------------------------------|
B|---------------------------------------|    Chorus
G|-----------------55-----------------55-|
D|---7---55---33---55---5---55---33---55-|
A|---7---55---33---33---5---55---33---33-|
E|---5---33---11--------7---33---11------|

  Repeat intro, verses, chorous again and then this 1x
e|-----------------------------------------------------------------------|
B|-----------------------------------------------------------------------|
G|---5----------------5--------------------------------55-------------55-|
D|---5--22--33---55---5---22---33---55---5---55---33---55--5--55--33--55-|
A|---3--22--33---55---3---22---33---55---5---55---33---33--5--55--33--33-|
E|------00--11---33-------00---11---33---7---33---11-------7--33--11-----|

 You play the chorous again then its the bridge or whatever it is but it doesn't have 
so I play the first part of the verse here lightly without distortion not sure how many 
you repeat it then you play it with distortion again I'm not sure how many times you repeat it.
Play the chorous again then play the first part of the verse again as the outro.


I'm sure the last part of this tab is confusing but if you listen to the c.d
you should get it. By the way does any one even like ska anymore? Hit me up on myspace 
somethin if ya got any guestions coments or whatever.

            
            
Suggest correction
Creating personal tab
Creating personal tab
You can edit any tab online and save it as your Personal.

You can edit, replace or remove any tab part or add personal notes – all changes will be seen only by you.

Personal tabs can be accessed anytime from any device, even offline.
Learn more »
Give kudos to tab author, rate the tab!
1 2 3 4 5
comments
print report bad tab
guest
Wanna post a correction for this tab? Suggest correction