Oops, an error
Loading. Please wait.

Hives Are Law You Are Crime bass

834 views 1 this week
1 commentread comment
1 2 3 4 5
1 last vote to show rating
add to favorites
×
Save as Personal and add changes to this tab that will be seen only by you. Learn more ›
×
You can save this tab as Personal to edit and correct it or add notes. All changes will be seen only by you. Learn more »
launch autoscroll
font size
0
reset
guitar tuner
edit
Autoscroll
slow
fast
+/-
esc
set tempo
stop
Author
Artist: The Hives
Track: The Hives Are Law, You Are Crime
Album: Your New Favourite Band
Bassist: Dr Matt Destruction
Tabber: Duncan Usher, iksose3@hotmail.com


Intro
G|--------------------------||------------------------------------------|--|
D|--------------------------||------------------------------------------|--|
A|--------------------------||------------------------------------------|x2|
E|--7-7---7-7---7-7---7-7---||----7-7-7-7-7-7-7-7-7-7-7-7-7-7-7-0-7-0-7-|--|

Verse
G|--------------------|--|----------------------------||
D|--------------------|--|----------------------------||
A|--------------------|x5|----------------------------||
E|--7-7-7-7-7-7-7-7---|--|--10-10-10-10-10-10-10-10---||

Chorus
G|---------------------------||
D|---------------------------||
A|--4-4-4--------------------||
E|---------4--5-5-5--4-------||

Then after the chorus it goes back to the verse, Simple but brilliant eh? Haha.
Anyway. I’m not sure about the chorus, I mean im sure about the notes, just, it
sounds like the bass keeps plugging away on the beat only, but maybe it follows
the guitar’s rhythm.

G|-------------------------------------------------------------------------|
D|-------------------------------------------------------------------------|
A|-4-4-4-4-4---------------------------------------------------------------|
E|------------4--5-5-5-5-5--4----------------------------------------------|

That’s it, if you couldn’t get it, which I’m sure you could. Just to be  on the
safe side. Take your pick on the rhythms. Another amazing Hives song, they seem
to be chock full of them. Any questions or comments, iksose3@hotmail.com, Cheers!

            
            
Suggest correction
Creating personal tab
Creating personal tab
You can edit any tab online and save it as your Personal.

You can edit, replace or remove any tab part or add personal notes – all changes will be seen only by you.

Personal tabs can be accessed anytime from any device, even offline.
Learn more »
Give kudos to tab author, rate the tab!
1 2 3 4 5
comments
print report bad tab
1 comment total.
0 reply
Supadude 10 Aug 06, 2006 06:27 AM

Friggin brilliant tab!
Not very hard to tab!

guest
You may want to rate the tab now too:
select rating
Wanna post a correction for this tab? Suggest correction