Oops, an error
Loading. Please wait.

Wont Be Long tab

version 2
version 2

Whole song

Interactive

10,671 views 12 this week
no commentswrite comment
1 2 3 4 5
x 5
add to favorites
×
Save as Personal and add changes to this tab that will be seen only by you. Learn more ›
×
You can save this tab as Personal to edit and correct it or add notes. All changes will be seen only by you. Learn more »
launch autoscroll
font size
0
reset
how to read this tab
guitar tuner
edit
Autoscroll
slow
fast
+/-
esc
set tempo
stop
Author
-------------------------------------------------------------------------------
			              WON'T BE LONG - The Hives
-------------------------------------------------------------------------------
Tabbed by: Andrew Lilja
Email: andrew@greysheepduo.com

Tuning: EADGBe (Standard)

Any comments or corrections should be emailed to me if you want me to update
them. I'm not completely sure about the rhythm for the intro riff, and
there's a little bit of sound that's floating around the verses before the
chorus that I couldn't tab.

INTRO
-----

Guitar 1:
        C#5 C#5       F#5 F#5       F#5 F#5       E5 E5       E5 E5       B5
e|---------------------------------------------------------------------------|
B|---------------------------------------------------------------------------|
G|--------------------11--11--x--x--11--11--x--x--9--9--x--x--9--9--x--x-----|
D|-x--x-11--11--x--x--11--11--x--x--11--11--x--x--9--9--x--x--9--9--x--x--9--|
A|-x--x-11--11--x--x--9---9---x--x--9---9---x--x--7--7--x--x--7--7--x--x--9--|
E|-x--x-9---9---x--x------------------------------------------------------7--|
   B5       B5 B5       C#5 C#5
e|------------------------------|
B|------------------------------|
G|------------------------------|
D|-9--x--x--9--9--x--x--11--11--|
A|-9--x--x--9--9--x--x--11--11--|
E|-7--x--x--7--7--x--x--9---9---|

Guitar 2:

e|---------------------------------------------------------------------------|
B|---------------------------------------------------------------------------|
G|--------------------------------------------------9=======================-|
D|--------------------------------------------------9=======================-|
A|--------------------------------------------------7=======================-|
E|---------------------------------------------------------------------------|

e|-----------------------------------|
B|-----------------------------------|
G|-----------------------------------|
D|-9=======================----------|
A|-9=======================----------|
E|-7=======================----------|

Guitar 1:
        C#5 C#5       F#5 F#5       F#5 F#5       E5 E5       E5 E5       B5
e|---------------------------------------------------------------------------|
B|---------------------------------------------------------------------------|
G|--------------------11--11--x--x--11--11--x--x--9--9--x--x--9--9--x--x-----|
D|-x--x-11--11--x--x--11--11--x--x--11--11--x--x--9--9--x--x--9--9--x--x--9--|
A|-x--x-11--11--x--x--9---9---x--x--9---9---x--x--7--7--x--x--7--7--x--x--9--|
E|-x--x-9---9---x--x------------------------------------------------------7--|
   B5       B5 B5       C#5 C#5
e|------------------------------|
B|------------------------------|
G|------------------------------|
D|-9--x--x--9--9--x--x--11--11--|
A|-9--x--x--9--9--x--x--11--11--|
E|-7--x--x--7--7--x--x--9---9---|

Guitar 2:

e|---------------------------------------------------------------------------|
B|--------14--14--14-12------------------------------------------------------|
G|-11-13----------------13-11-11--11/13--------------------------------------|
D|--------------------------------------11-----------------------------------|
A|---------------------------------------------------------------------------|
E|---------------------------------------------------------------------------|

e|----------------------------|
B|----------------------------|
G|----------------------------|  
D|----------------------------| 
A|----------------------------|
E|----------------------------|

VERSE 1
-------

Guitar 1:
        C#5 C#5       F#5 F#5       F#5 F#5       E5 E5       E5 E5       B5
e|---------------------------------------------------------------------------|
B|---------------------------------------------------------------------------|
G|--------------------11--11--x--x--11--11--x--x--9--9--x--x--9--9--x--x-----|
D|-x--x-11--11--x--x--11--11--x--x--11--11--x--x--9--9--x--x--9--9--x--x--9--|
A|-x--x-11--11--x--x--9---9---x--x--9---9---x--x--7--7--x--x--7--7--x--x--9--|
E|-x--x-9---9---x--x------------------------------------------------------7--|
   B5       B5 B5       C#5 C#5
e|-----------------------------------|
B|-----------------------------------|
G|-----------------------------------|
D|-9--x--x--9--9--x--x--11--11--x--x-| x2
A|-9--x--x--9--9--x--x--11--11--x--x-|
E|-7--x--x--7--7--x--x--9---9---x--x-|

Guitar 2:

e|---------------------------------------------------------------------------|
B|---------------------------------------------------------------------------|
G|--------------------------------------------------9=======================-|
D|--------------------------------------------------9=======================-|
A|--------------------------------------------------7=======================-|
E|---------------------------------------------------------------------------|

e|-----------------------------------|
B|-----------------------------------|
G|-----------------------------------|
D|-9=======================----------| x2
A|-9=======================----------|
E|-7=======================----------|

CHORUS
------

Guitar 1:
   C#5                  F#5                  E5              B5
e|-------------------------------------------------------------------------|
B|-------------------------------------------------------------------------|
G|----------------------11---11---11-11-11---9---9---9-9-9-----------------|
D|-11---11---11-11-11---11---11---11-11-11---9---9---9-9-9---9---9---9-9-9-| x2
A|-11---11---11-11-11---9----9----9--9--9----7---7---7-7-7---9---9---9-9-9-|
E|-9----9----9--9--9-----------------------------------------7---7---7-7-7-|

VERSE 2
-------

Guitar 1:
        C#5 C#5       F#5 F#5       F#5 F#5       E5 E5       E5 E5       B5
e|---------------------------------------------------------------------------|
B|---------------------------------------------------------------------------|
G|--------------------11--11--x--x--11--11--x--x--9--9--x--x--9--9--x--x-----|
D|-x--x-11--11--x--x--11--11--x--x--11--11--x--x--9--9--x--x--9--9--x--x--9--|
A|-x--x-11--11--x--x--9---9---x--x--9---9---x--x--7--7--x--x--7--7--x--x--9--|
E|-x--x-9---9---x--x------------------------------------------------------7--|
   B5       B5 B5       C#5 C#5
e|------------------------------|
B|------------------------------|
G|------------------------------|
D|-9--x--x--9--9--x--x--11--11--|
A|-9--x--x--9--9--x--x--11--11--|
E|-7--x--x--7--7--x--x--9---9---|

Guitar 2:

e|---------------------------------------------------------------------------|
B|--------14--14--14-12------------------------------------------------------|
G|-11-13----------------13-11-11--11/13--------------------------------------|
D|--------------------------------------11-----------------------------------|
A|---------------------------------------------------------------------------|
E|---------------------------------------------------------------------------|

e|----------------------------|
B|----------------------------|
G|----------------------------|  
D|----------------------------|
A|----------------------------|
E|----------------------------|

Guitar 1:
        C#5 C#5       F#5 F#5       F#5 F#5       E5 E5       E5 E5       B5
e|---------------------------------------------------------------------------|
B|---------------------------------------------------------------------------|
G|--------------------11--11--x--x--11--11--x--x--9--9--x--x--9--9--x--x-----|
D|-x--x-11--11--x--x--11--11--x--x--11--11--x--x--9--9--x--x--9--9--x--x--9--|
A|-x--x-11--11--x--x--9---9---x--x--9---9---x--x--7--7--x--x--7--7--x--x--9--|
E|-x--x-9---9---x--x------------------------------------------------------7--|
   B5       B5 B5       C#5 C#5
e|------------------------------|
B|------------------------------|
G|------------------------------|
D|-9--x--x--9--9--x--x--11--11--| x2
A|-9--x--x--9--9--x--x--11--11--|
E|-7--x--x--7--7--x--x--9---9---|

Guitar 2:

e|---------------------------------------------------------------------------|
B|---------------------------------------------------------------------------|
G|--------------------------------------------------9=======================-|
D|--------------------------------------------------9=======================-|
A|--------------------------------------------------7=======================-|
E|---------------------------------------------------------------------------|

e|-----------------------------------|
B|-----------------------------------|
G|-----------------------------------|
D|-9=======================----------| x2
A|-9=======================----------|
E|-7=======================----------|

CHORUS
------

Guitar 1:
   C#5                  F#5                  E5              B5
e|-------------------------------------------------------------------------|
B|-------------------------------------------------------------------------|
G|----------------------11---11---11-11-11---9---9---9-9-9-----------------|
D|-11---11---11-11-11---11---11---11-11-11---9---9---9-9-9---9---9---9-9-9-| x2
A|-11---11---11-11-11---9----9----9--9--9----7---7---7-7-7---9---9---9-9-9-|
E|-9----9----9--9--9-----------------------------------------7---7---7-7-7-|

BRIDGE
------
Guitar 1: (silent)
	
Guitar 2:

e|---------------------------------------------------------------------------|
B|----14==---------------14==------------------14--14--14-12-----------------|
G|---------13==-11==-9-6------13==-11==-11-13----------------13-11-11--11/13-|
D|-11===============---------------------------------------------------------|
A|---------------------------------------------------------------------------|
E|---------------------------------------------------------------------------|

e|------------------------------------------------------------|
B|------------------------------14--14--12--------------------|
G|-----------11-11/13----11-13-------------13-11-11--11/13----|
D|-11=-11-14----------11-----------------------------------11-|
A|------------------------------------------------------------|
E|------------------------------------------------------------|

Guitar 1:

e|---------------------------------------------------------------------------|
B|---------------------------------------------------------------------------|
G|---------------------------------------------------------------------------|
D|-6--6--6--6--6-------------------------------------------------------------|
A|-6--6--6--6--6-------------------------------------------------------------|
E|-4--4--4--4--4-------------------------------------------------------------|

Guitar 2: (silent)

CHORUS
------

Guitar 1:
   C#5                  F#5                  E5              B5
e|-------------------------------------------------------------------------|
B|-------------------------------------------------------------------------|
G|----------------------11---11---11-11-11---9---9---9-9-9-----------------|
D|-11---11---11-11-11---11---11---11-11-11---9---9---9-9-9---9---9---9-9-9-| x4
A|-11---11---11-11-11---9----9----9--9--9----7---7---7-7-7---9---9---9-9-9-|
E|-9----9----9--9--9-----------------------------------------7---7---7-7-7-|

OUTRO
-----

Guitar 1:
        C#5 C#5       F#5 F#5       F#5 F#5       E5 E5       E5 E5       B5
e|---------------------------------------------------------------------------|
B|---------------------------------------------------------------------------|
G|--------------------11--11--x--x--11--11--x--x--9--9--x--x--9--9--x--x-----|
D|-x--x-11--11--x--x--11--11--x--x--11--11--x--x--9--9--x--x--9--9--x--x--9--|
A|-x--x-11--11--x--x--9---9---x--x--9---9---x--x--7--7--x--x--7--7--x--x--9--|
E|-x--x-9---9---x--x------------------------------------------------------7--|
   B5       B5 B5       C#5 C#5
e|------------------------------|
B|------------------------------|
G|------------------------------|
D|-9--x--x--9--9--x--x--11--11--| x2
A|-9--x--x--9--9--x--x--11--11--|
E|-7--x--x--7--7--x--x--9---9---|

| /  slide up
| \  slide down
| h  hammer-on
| p  pull-off
| ~  vibrato
| +  harmonic
| x  mute note
| =  let ring
===============================================================================

            
            
Suggest correction
Creating personal tab
Creating personal tab
You can edit any tab online and save it as your Personal.

You can edit, replace or remove any tab part or add personal notes – all changes will be seen only by you.

Personal tabs can be accessed anytime from any device, even offline.
Learn more »
comments
print report bad tab
guest
You may want to rate the tab now too:
select rating
Wanna post a correction for this tab? Suggest correction