Oops, an error
Loading. Please wait.

Massive Nights bass

3,068 views 6 this week
1 commentread comment
1 2 3 4 5
x 3
add to favorites
×
Save as Personal and add changes to this tab that will be seen only by you. Learn more ›
×
You can save this tab as Personal to edit and correct it or add notes. All changes will be seen only by you. Learn more »
launch autoscroll
font size
0
reset
guitar tuner
edit
Autoscroll
slow
fast
+/-
esc
set tempo
stop
Author
Cant beleive no one has tbbed this yet, good fun to play and easy too

Verse/chorus
G|-------------------------------------------------------------------------|
D|-------------------------------------------------------------------------|
A|-------------7-7-7-7-7-9-7-9-9-9-9-----7-7-7-7-7-9-7---------------------|
E|-7-7-7-7-5-7-----------------------9-7-----------------------------------|

First verse variation
G|-------------------------------------------------------------------------|
D|-------------------------------------------------------------------------|
A|-------------7-7-7-7-7-9-7---9---9-----7-7-7-7-7-9-7---------------------|
E|-7-7-7-7-5-7-----------------------9-7-----------------------------------|

Pre chorus
G|-------------------------------------------------------------------------|
D|-------------------------------------------------------------------------|
A|-11-9-7------------------------------------------------------------------|
E|-------------------------------------------------------------------------|

Second verse variation
G|-------------------------------------------------------------------------|
D|-------------------------------------------------------------------------|
A|---------7-6-----9-7-6---7-6---6-----------------------------------------|
E|-7-5-4-2-----9-7-------9-----9-------------------------------------------|

Ending key change
G|-------------------------------------------------------------------------|
D|-------------------------------------------------------------------------|
A|-------------9-9-9-9-9-11-9-11-11-11-11------9-9-9-9-9-11-9--------------|
E|-9-9-9-9-7-9----------------------------11-9-----------------------------|


I think that is about it, its not all in perfect order but it should be easy enough to 
together. any critisism or corrections just leave them in the comments and ill try to get 
to you

            
            
Suggest correction
Creating personal tab
Creating personal tab
You can edit any tab online and save it as your Personal.

You can edit, replace or remove any tab part or add personal notes – all changes will be seen only by you.

Personal tabs can be accessed anytime from any device, even offline.
Learn more »
Give kudos to tab author, rate the tab!
1 2 3 4 5
comments
print report bad tab
1 comment total.
0 reply
queendog77 50 Aug 29, 2008 01:14 PM

Homie, this is so wrong. It goes from the 7th on the E up to the 7th on the D, followed by a quick hammer-on to the 9th, down to the 7th on the A; then over to the 9th on the A, down to the 9th on the E, then back up to the 7th on the A. Though, I did just watch a youtube video of it and the dude appears to go down towards the neck for the last part of it. Not sure the reason, though.

guest
You may want to rate the tab now too:
select rating
Wanna post a correction for this tab? Suggest correction