Oops, an error
Loading. Please wait.
We have an official Long Cool Woman tab made by UG professional guitarists. Check out the tab »
×
34,725 views 39 this week
2 commentsread comments
1 2 3 4 5
x 5
add to favorites
×
Save as Personal and add changes to this tab that will be seen only by you. Learn more ›
×
You can save this tab as Personal to edit and correct it or add notes. All changes will be seen only by you. Learn more »
launch autoscroll
font size
0
reset
guitar tuner
backing track
0:00
0:00
edit
Autoscroll
slow
fast
+/-
esc
set tempo
stop
Author
Unregistered
(Guitar, Drums)     
(0:19)                                                
G|---|-----------------|-----------9--7-----|-----------------|------------------|
D|---|-----------------|-----------------9--|-----------------|------------------|
A|---|-----------------|--------------------|--7--------------|--7---------------|
E|---|-----------------|--------------------|-----------7-----|-----------7------|
                                                                                 
G|------|-----------------|-----------------------|-----------------|------------|
D|------|-----------------|-----------------------|-----------------|------------|
A|------|--7--------------|--7-----------------6--|--7--------------|--7---------|
E|------|-----------7-----|-----------7--7--9-----|-----------7-----|------------|                         
                                                                                
G|------------|-----------------|-----------------|-----------------|------------|
D|------------|-----------------|-----------------|-----------------|------------|
A|------------|-----------------|--7--------------|--7--------------|--7---------|
E|------7-----|--3--------5-----|-----------7-----|-----------7-----|------------|
                                                                                                    
G|------------|-----------------|-----------------|-----------------------|------|
D|------------|-----------------|-----------------|-----------------------|------|
A|------------|-----------------|--7--------------|--7-----------------6--|------|
E|------7-----|--3--------5-----|-----------7-----|-----------7-----9-----|------|
                                                                                                      
G|------------------|-----------------|-----------------|-----------------|------|
D|------------------|-----------------|-----------------|-----------------|------|
A|---7--------------|--7--------------|-----------------|--7--------------|------|
E|------------7-----|-----------7-----|--3--------5-----|-----------7-----|------|                   
                                                                                
G|------------------|-----------------|-----------------|-----------------|------|
D|------------------|-----------------|-----------------|-----------------|------|
A|---7--------------|--7--------------|-----------------|--7--------------|------|
E|------------7-----|-----------7-----|--3--------5-----|-----------7-----|------|
                                                                                
(0:59)                                                
G|------------------------|-----------------|-----------------------|------------|
D|---------------------6--|--7--------------|--7--------------7--8--|--9---------|
A|---7--------x--7--9-----|-----------7-----|-----------7-----------|------------|
E|------------------------|-----------------|-----------------------|------------|
                                                                                                    
G|------------|-----------------|-----------------------|-----------------|------|
D|------------|--9--------------|--9--------------9--8--|--7--------------|------|
A|------9-----|-----------9-----|-----------9-----------|-----------7-----|------|
E|------------|-----------------|-----------------------|-----------------|------|
                                                                                                   
G|------------------|-----------------|-----------------|-----------------|------|
D|---7--------------|--5--------------|-----------------|--7--------------|------|
A|------------7-----|-----------5-----|--7--------------|-----------7-----|------|
E|------------------|-----------------|-----------7-----|-----------------|------|
                                                                                
(Guitars)       
(1:39)      
G|------------------|-----------------|-----------------|--------------|---------|
D|---7--------------|--5--------------|-----------------|--------------|---------|
A|------------7-----|-----------5-----|--7--------------|--------------|---------|
E|------------------|-----------------|-----------------|--------------|---------|
                                                                                                      
G|---------9--7-----|-----------------|-----------------|-----------------|------|
D|---------------9--|-----------------|-----------------|-----------------|------|
A|------------------|--7--------------|--7--------------|--7--------------|------|
E|------------------|-----------7-----|-----------7-----|-----------7-----|------|
                                                                                           
G|------------------------|-----------------|-----------------|------------------|
D|------------------------|-----------------|-----------------|------------------|
A|---7-----------------6--|--7--------------|--7--------------|------------------|
E|------------7--7--9-----|-----------7-----|-----------7-----|--3--------5------|
                                                                                                  
G|------|-----------------|-----------------|-----------------|------------------|
D|------|-----------------|-----------------|-----------------|------------------|
A|------|--7--------------|--7--------------|--7--------------|------------------|
E|------|-----------7-----|-----------7-----|-----------7-----|--3--------5------|
                                                                                             
G|------|-----------------|-----------------|-----------------|------------------|
D|------|-----------------|-----------------|-----------------|------------------|
A|------|--7--------------|--7--------------|--7--------------|--7---------------|
E|------|-----------7-----|-----------7-----|-----------7-----|-----------7------|                 
                                                                                
G|------|-----------------|-----------------|-----------------|------------------|
D|------|-----------------|-----------------|-----------------|------------------|
A|------|-----------------|--7--------------|--7--------------|--7---------------|
E|------|--3--------5-----|-----------7-----|-----------7-----|-----------7------|
                                                                                                  
G|------|-----------------|-----------------|-----------------------|------------|
D|------|-----------------|-----------------|-----------------------|------------|
A|------|-----------------|--7--------------|--7-----------------6--|--7---------|
E|------|--3--------5-----|-----------7-----|-----------7-----9-----|------------|                 
                                                                                
G|------------|-----------------|-----------------|------------------------------|
D|------------|-----------------|-----------------|------------------------------|
A|------------|--7--------------|-----------------|--7-----------------6---------|
E|------7-----|-----------7-----|--3--------5-----|-----------7-----9------------|
                                                                                
(2:24)                                                                      
G|---|-----------------|-----------------|-----------------|---------------------|
D|---|-----------------|-----------------|-----------------|---------------------|
A|---|--7--------------|-----------------|-----------7-----|-----------7---------|
E|---|-----------7-----|--3--------3-----|--5--------------|--5------------------|                         
                                                                                
G|---|-----------------|-----------------------|-----------------|---------------|
D|---|-----------------|-----------------7--6--|--5--------------|---------------|
A|---|-----------7-----|-----------7-----------|-----------5-----|--7------------|
E|---|--5--------------|--5--------------------|-----------------|---------------|         
                                                                                
G|---------|-----------------|-----------------------|-----------------|--------|
D|---------|--7--------------|--7--------------7--6--|--5--------------|*-------|
A|---------|-----------7-----|-----------7-----------|-----------5-----|*--7----|
E|---7-----|-----------------|-----------------------|-----------------|--------|
                                                                                
[Outro]  (x2)                      
G|---------------|------------------------|-----------------|------------------|
D|---------------|-----------------------*|-----------------|------------------|
A|---------------|--7-----------------6--*|-----------------|------------------|
E|---------7-----|-----------7-----9------|-----------------|------------------|


************************************

| x  Dead note
| *  Natural harmonic

************************************

            
            
Suggest correction
Creating personal tab
Creating personal tab
You can edit any tab online and save it as your Personal.

You can edit, replace or remove any tab part or add personal notes – all changes will be seen only by you.

Personal tabs can be accessed anytime from any device, even offline.
Learn more »
comments
print report bad tab
2 comments total.
0 reply
[Wampus] 10 Jul 29, 2013 09:04 AM

I'm not hearing the Guitars 1:39 part askgj;laskdj;akg!!!!! This tab is great.

0 reply
flutemancraig 10 Nov 19, 2014 05:13 PM

Seems legit

guest
Wanna post a correction for this tab? Suggest correction