Oops, an error
Loading. Please wait.
We have Chord Pro version of Long Cool Woman In A Black Dress.
It's the closest thing you can get to the original song and it has interactive parts. Check out the tab »
×

Long Cool Woman In A Black Dress intro tab

84,957 views 63 this week
9 commentsread comments
1 2 3 4 5
x 32
add to favorites
×
Save as Personal and add changes to this tab that will be seen only by you. Learn more ›
×
You can save this tab as Personal to edit and correct it or add notes. All changes will be seen only by you. Learn more »
launch autoscroll
font size
0
reset
how to read this tab
guitar tuner
edit
Autoscroll
slow
fast
+/-
esc
set tempo
stop
Author
Difficulty
Long Cool Woman In a Black Dress
The Hollies- Album: Distant Light
Submitted by Jack.


[Intro] (x2)

Let the open notes ring…
e|------------------------------------------|
B|-------------------0----0-----0-----------|
G|---------------------0-----0------0-------|
D|-------------0h2/5-----4-----2------0-----|
A|------0h2---------------------------------|
E|--0---------------------------------------|

e|------------------------------------------------|
B|------------------------------------------------|
G|--0----------------0-----0-----0-----0----------|
D|------0------0--------0-----0-----0-----0-------|
A|----------2-------------------------------------|
E|----------------3-------2-----3-----5------3-2--|





************************************

| h  Hammer-on
| /  Slide up

************************************

            
            
Suggest correction
Creating personal tab
Creating personal tab
You can edit any tab online and save it as your Personal.

You can edit, replace or remove any tab part or add personal notes – all changes will be seen only by you.

Personal tabs can be accessed anytime from any device, even offline.
Learn more »
There is a new version of this tab from 5 days ago which you may like more. Go check it out:
comments
print report bad tab
9 comments total. Showing first comments.
0 reply
lbc_sublime 101 Jan 15, 2009 02:08 PM

E---------------------------------------------------------------
B---------------------------------------------------------------
G-----------------0-----0---0-----------------------------------
D-----------0---0-----0---0-----0-----0-----0-----0-----0---0----0
A---0H2-0-5---4-----2---------2-----2-----0-----2-----0---------
E-0-------------------------------3-----1-----3-----5-----3---2-

+1 reply
lbc_sublime 101 Jan 15, 2009 02:20 PM

lol i messed up th first time putting it in

e------------------------------------------------------------------
B------------------0-----0-----------------------------------------
G------------0---0-----0-----0-------------------------------------
D--------0-5---4-----2-----0-----0------0-----0-----0-----0---0----
A---0H2-------------------------2------2-----0-----2-----0--------0
E-0----------------------------------3------1-----3-----5----3---2-

0 reply
mosurf 10 Jun 22, 2009 02:22 PM

I think sublime got it on the 2nd try here.

guest
You may want to rate the tab now too:
select rating
Wanna post a correction for this tab? Suggest correction