Oops, an error
Loading. Please wait.

Man Without A Heart bass

34 views 6 this week
no commentswrite comment
1 2 3 4 5
3 more votes to show rating
add to favorites
×
Save as Personal and add changes to this tab that will be seen only by you. Learn more ›
×
You can save this tab as Personal to edit and correct it or add notes. All changes will be seen only by you. Learn more »
launch autoscroll
font size
0
reset
guitar tuner
edit
Autoscroll
slow
fast
+/-
esc
set tempo
stop
Author
Difficulty
Tabbed by: 6METAL6BASSIST6
E-mail: petergriffinav@gmail.com

Tuning: EADG

G|----------------------------------------------------------------|.
D|9-------9-------9-------9-------11------11------11------11------|.
A|------------9---------------9---------------9-------9-------9---|.
E|----------------------------------------------------------------|.
                                                                   . x2
G|----------------------------------------------------------------|.
D|12------12------12------12------12------12------11----------11--|.
A|--------------------------------------------------------9-------|.
E|----------------------------------------------------------------|.

0:15


G|----------------------------------------------------------------|
D|9-------9-------9-------9-------11------11------11------11------|
A|------------9---------------9---------------9---------------9---|
E|----------------------------------------------------------------|

G|----------------------------------------------------------------|
D|12------12------12------12------11------11------11------11------|
A|------------9---------------9---------------9---------------9---|
E|----------------------------------------------------------------|

G|----------------------------------------------------------------|
D|9-------9-------9-------9-------11------11------11------11------|
A|------------9---------------9---------------9-------9-------9---|
E|----------------------------------------------------------------|

G|----------------------------------------------------------------|
D|12------12------12------12------11------11----------------------|
A|------------9---------------9-------------------9---9---9---9---|
E|----------------------------------------------------------------|

0:30

G|----------------------------------------------------------------|
D|----------------------------------------------------------------|
A|----------------------------------------------------------------|
E|7---7---7---7---7---7---7---7---9---9---9---9---9---9---9---9---|

G|----------------------------------------------------------------|
D|----------------------------------------------------------------|
A|----------------------------------------------------------------|
E|10--10--10--10--10--10--10--10--9---9---9---9---9---9---9-------|

0:37

G|----------------------------------------------------------------|
D|9-------9-------9-------9-------11------11------11------11------|
A|------------9---------------9---------------9-------9-------9---|
E|----------------------------------------------------------------|

G|----------------------------------------------------------------|
D|12------12------12------12------11------11------11------11------|
A|------------9---------------9---------------9---------------9---|
E|----------------------------------------------------------------|

G|----------------------------------------------------------------|
D|9-------9-------9-------9-------11------11------11------11------|
A|------------9---------------9---------------9-------9-------9---|
E|----------------------------------------------------------------|

G|----------------------------------------------------------------|
D|12------12------12------12------11------11----------------------|
A|------------9---------------9-------------------9---9---9---9---|
E|----------------------------------------------------------------|

0:51

G|----------------------------------------------------------------|
D|----------------------------------------------------------------|
A|----------------------------------------------------------------|
E|7---7---7---7---7---7---7---7---9---9---9---9---9---9---9---9---|

G|----------------------------------------------------------------|
D|----------------------------------------------------------------|
A|----------------------------------------------------------------|
E|10--10--10--10--10--10--10--10--9---9---9---9---9---9-----------|



1:13

G|----------------------------------------------------------------|
D|9-------9-------9-------9-------11------11------11------11------|
A|------------9---------------9---------------9-------9-------9---|
E|----------------------------------------------------------------|

G|----------------------------------------------------------------|
D|12------12------12------12------11------11------11------11------|
A|------------9---------------9---------------9---------------9---|
E|----------------------------------------------------------------|

G|----------------------------------------------------------------|
D|9-------9-------9-------9-------11------11------11------11------|
A|------------9---------------9---------------9---------------9---|
E|----------------------------------------------------------------|

G|----------------------------------------------------------------|
D|12------12------12------12------11------11----------------------|
A|------------9---------------9-------------------9---9---9---9---|
E|----------------------------------------------------------------|

1:26

G|----------------------------------------------------------------|
D|----------------------------------------------------------------|
A|----------------------------------------------------------------|
E|7---7---7---7---7---7---7---7---9---9---9---9---9---9---9---9---|

G|----------------------------------------------------------------|
D|----------------------------------------------------------------|
A|----------------------------------------------------------------|
E|10--10--10--10--10--10--10--10--9---9---9---9---9---9---9-------|

1:34

G|----------------------------------------------------------------|
D|9-------9-------9-------9-------11------11------11------11------|
A|------------9---------------9---------------9-------9-------9---|
E|----------------------------------------------------------------|

G|----------------------------------------------------------------|
D|12------12------12------12------11------11------11------11------|
A|------------9---------------9---------------9---------------9---|
E|----------------------------------------------------------------|

G|----------------------------------------------------------------|
D|9-------9-------9-------9-------11------11------11------11------|
A|------------9---------------9---------------9---------------9---|
E|----------------------------------------------------------------|

G|----------------------------------------------------------------|
D|12------12------12------12------11------11----------------------|
A|------------9---------------9-------------------9---9-----------|
E|--------------------------------------------------------9---9---|

1:48

G|----------------------------------------------------------------|
D|----------------------------------------------------------------|
A|----------------------------------------------------------------|
E|7---7---7---7---7---7---7---7---9---9---9---9---9---9---9---9---|

G|----------------------------------------------------------------|
D|----------------------------------------------------------------|
A|----------------------------------------------------------------|
E|10--10--10--10--10--10--10--10--9---9---9---9---9---9---9-------|

1:56

G|----------------------------------------------------------------|
D|9-------9-------9-------9-------11------11------11------11------|
A|------------9---------------9---------------9-------9-------9---|
E|----------------------------------------------------------------|

G|----------------------------------------------------------------|
D|12------12------12------12------12------12------11--11------11--|
A|--------------------------------------------------------9-------|
E|----------------------------------------------------------------|

G|----------------------------------------------------------------|.
D|9-------9-------9-------9-------11------11------11------11------|.
A|------------9---------------9---------------9-------9-------9---|.
E|----------------------------------------------------------------|.
                                                                   . x2
G|----------------------------------------------------------------|.
D|12------12------12------12------12------12------11----------11--|.
A|--------------------------------------------------------9-------|.
E|----------------------------------------------------------------|.

G|----------------------------------------------------------------|
D|9-------9-------9-------9-------11------11------11------11------|
A|------------9---------------9---------------9-------9-------9---|
E|----------------------------------------------------------------|

G|----------------|
D|12------12------| fades out here.
A|----------------|
E|----------------|

            
            
Suggest correction
Creating personal tab
Creating personal tab
You can edit any tab online and save it as your Personal.

You can edit, replace or remove any tab part or add personal notes – all changes will be seen only by you.

Personal tabs can be accessed anytime from any device, even offline.
Learn more »
Give kudos to tab author, rate the tab!
1 2 3 4 5
comments
print report bad tab
guest
You may want to rate the tab now too:
select rating
Wanna post a correction for this tab? Suggest correction