Oops, an error
Loading. Please wait.

Far More ukulele

133 views 1 this week
no commentswrite comment
1 2 3 4 5
3 more votes to show rating
add to favorites
×
Save as Personal and add changes to this tab that will be seen only by you. Learn more ›
×
You can save this tab as Personal to edit and correct it or add notes. All changes will be seen only by you. Learn more »
launch autoscroll
font size
0
reset
transpose
0
reset
display chords
guitar tuner
edit
Autoscroll
slow
fast
+/-
esc
set tempo
stop
Difficulty
Strumming
There is no strumming pattern for this song yet. and get +5 IQ
----------------------------------------------------------------------------
                          Far More - The Honorary Title
----------------------------------------------------------------------------
Tabbed by: adslam3
Email:

Tuning: Standard

Easy song! Just listen for the strumming patterns in the song!
*NOTE: I'm not showing strum patterns

VERSE/CHORUS
     C        F       G       C
e|---0--------1-------3-------0---------------------------------------------|
B|---1--------1-------3-------1---------------------------------------------|
G|---0--------2-------4-------0---------------------------------------------|
D|---2--------3-------5-------2---------------------------------------------|
A|---3--------3-------5-------3---------------------------------------------|
E|---0--------1-------3-------0---------------------------------------------|

When Jarrod goes back to C, the chord that you hear between two
lines of verses is:
e|--0------------------------------------------------------------------------|
B|--1------------------------------------------------------------------------|
G|--0------------------------------------------------------------------------|
D|--0------------------------------------------------------------------------|
A|--3------------------------------------------------------------------------|
E|--0------------------------------------------------------------------------|
If you listen to the song, you'll know what i'm talking about.
The first example of this chord is at 0:14 and 0:15.

Bridge (part before keyboard/organ part)
    Am      F     C     G
e|--0-------1-----0-----3---------------------------------------------------|
B|--1-------1-----1-----3---------------------------------------------------|
G|--2-------2-----0-----4---------------------------------------------------|
D|--2-------3-----2-----5---------------------------------------------------|
A|--0-------3-----3-----5---------------------------------------------------|
E|----------1-----0-----3---------------------------------------------------|

And then after the keyboard/organ part, go back to verse again.
And that's it!! I hope this helps and I hope we can get more songs from
the new cd up here!!


| /  slide up
| \  slide down
| h  hammer-on
| p  pull-off
| ~  vibrato
| +  harmonic
| x  Mute note
===============================================================================

            
            
Suggest correction
Creating personal tab
Creating personal tab
You can edit any tab online and save it as your Personal.

You can edit, replace or remove any tab part or add personal notes – all changes will be seen only by you.

Personal tabs can be accessed anytime from any device, even offline.
Learn more »
Give kudos to tab author, rate the tab!
1 2 3 4 5
comments
print report bad tab
guest
Wanna post a correction for this tab? Suggest correction