Oops, an error
Loading. Please wait.

Revealing Too Much chords

9,595 views 9 this week
2 commentsread comments
1 2 3 4 5
x 8
add to favorites
×
Save as Personal and add changes to this tab that will be seen only by you. Learn more ›
×
You can save this tab as Personal to edit and correct it or add notes. All changes will be seen only by you. Learn more »
launch autoscroll
font size
0
reset
transpose
0
reset
display chords
guitar tuner
edit
Autoscroll
slow
fast
+/-
esc
set tempo
stop
Strumming
There is no strumming pattern for this song yet. and get +5 IQ
(Intro riff).
e------------------------------------------------------------------------1----------l
B-----------1----------0----------1----------0-------------1----------1----------l
G---------------------------------------------------------------2-------2----------l
D-------2----------2----------2-------------------------3---------3---3----------l
A---3----------2----------0--------------2----------3-----------------3----------l
E--------------------------------------3----------1---------------------1----------l

(pick)
F                 G             C
Accentuated by a mobile dungeon of,
F                  G          (intro riff)
Flourescence as I fall out of love this wasn’t supposed to happen,
(intro riff)
According to you.

F                                 C
Please don’t allow your voice to fade,
                                G
Don’t fall so weak to fault to blame,
                                Am
To give yourself reason for an end.
F                                 C
Please don’t allow your voice to fade,
                                G
Don’t fall so weak to fault to blame,
                                Am
To give yourself reason for an end.

F  F  G  G  C  C  C  (Intro riff)

F                         G                        C
We’d have our own subway car in the middle of the night,
F                          G                    (Intro riff)
I’d work the same job and play the same bars on every weekend
(Intro riff)
As the graffiti scrolls by.

F                                 C
Please don’t allow your voice to fade,
                                G
Don’t fall so weak to fault to blame,
                                Am
To give yourself reason for an end.
F                                 C
Please don’t allow your voice to fade,
                                G
Don’t fall so weak to fault to blame,
                                Am
To give yourself reason for an end.

(strum)
F
                        C                                    G
And at the end of your low you pin my shoulders against the mattress,
                              Am
Arching your frame with your stomach pushed outward,
     F                                C
Your head tilting backwards with your mouth partially open
     G                       Am
The sounds slur and elevate slowly in volume,
         F                 C         G     Am
And you wake up with your family gathered around,
F             C              G  Am
Remember that our love was true,
         F       C            G         Am     C   G
And I will not allow you to destroy yourself, oh no.

F            C         G      Am
I hope that I’m not revealing too,
F            C         G      Am
I hope that I’m not revealing too,
F            C         G      Am
I hope that I’m not revealing too,
F            C         G      Am
I hope that I’m not revealing too,
Am  C G Am
Too much,
Am  C G Am
No too much.

F                         G                        C
We’d have our own subway car in the middle of the night,
F                          G                    (Intro riff)
I’d work the same job and play the same bars on every weekend
(Intro riff)
As the graffiti scrolls by.


            
            
Suggest correction
Creating personal tab
Creating personal tab
You can edit any tab online and save it as your Personal.

You can edit, replace or remove any tab part or add personal notes – all changes will be seen only by you.

Personal tabs can be accessed anytime from any device, even offline.
Learn more »
comments
print report bad tab
2 comments total.
+1 reply
littledeviljeff 21 Sep 01, 2008 07:12 PM

e------------------------------------------------------------------------1----------l
B-----------1----------0----------1----------0-------------1-------------1----------l
G---------------------------------------------------------------2--------2----------l
D-------2----------2----------2-------------------------3---------3------3----------l
A---3----------2----------0--------------2----------3--------------------3----------l
E--------------------------------------3----------1--------------------- 1----------l

I think this is how the tabber intended this to be

+2 reply
registered_user 110 Sep 16, 2009 08:17 AM

at least the 2nd to last part should be F C G Am instead of Am C G Am

guest
You may want to rate the tab now too:
select rating
Wanna post a correction for this tab? Suggest correction