Oops, an error
Loading. Please wait.

Untouched And Intact bass

488 views 1 this week
2 commentsread comments
1 2 3 4 5
2 more votes to show rating
add to favorites
×
Save as Personal and add changes to this tab that will be seen only by you. Learn more ›
×
You can save this tab as Personal to edit and correct it or add notes. All changes will be seen only by you. Learn more »
launch autoscroll
font size
0
reset
guitar tuner
edit
Autoscroll
slow
fast
+/-
esc
set tempo
stop
Author
Artist: The Honorary Title
Song: Untouched and Intact
Album: Scream & Light Up The Sky

Ok, I apologize because I haven’t done the timing perfectly.
I think the notes are pretty much correct though

Please rate

/ = slide up
\ = slide down
~ = let ring

Intro: (0:00) (16's, 13's and 14's)

G|-1616161616-------------------------------------|
D|------------1616161616-131313131313-1414141414\-| 
A|------------------------------------------------|
E|------------------------------------------------|

G|-------------------------|
D|-------------11111-22222-| (1's)
A|-------------------------|
E|-44444\22222-------------|

Verse: (0:12)  (11's)

G|---1111--1111----1313----1313-----------------|
D|/99----99----1111----1111------99--99--99--99-| 
A|-----------------------------77--77--77--77---|  x2
E|----------------------------------------------|

G|---------------------------------------|
D|------------------------99--99--99--99-| 
A|---99--99--1111--1111-77--77--77--77---|  x2
E|-77--77--99----99----------------------|

Chorus: (0:38) (1's)

G|-----------3--44\-|
D|---4---4-11-12----| 
A|-22-222-2---------|   x6
E|------------------|

Then:

Intro (0:57)
Verse (1:09)
Chorus (1:35)

Bridge: (1:54)

G|-------------------|
D|-66666666-88888888-| 
A|-------------------|
E|-------------------|

(Note: the last 5 or 6 notes on the 
  next 2 riffs are played quicker)

G|-------------11111-44444-| (1's)
D|-------44444-------------| 
A|-22222-------------------|
E|-------------------------|

G|-------------11111-4444---|
D|-------44444-----------22-| 
A|-22222--------------------|
E|--------------------------|

G|-------------------------------------|
D|-------------------------------------|
A|-2222--22------------------------222-|
E|----------2222--22-4444--44-0000-----|

G|----------------------------------|
D|----------------------------------|
A|-2222--22-------------------------|
E|----------2222--22-4444--44-00000-|

G|--------------------|
D|----------1111-2222-|
A|-22222222-----------| x10
E|--------------------|

G|-44444444--------------|
D|----------1111-2222----|
A|--------------------2~-|
E|-----------------------|

            
            
Suggest correction
Creating personal tab
Creating personal tab
You can edit any tab online and save it as your Personal.

You can edit, replace or remove any tab part or add personal notes – all changes will be seen only by you.

Personal tabs can be accessed anytime from any device, even offline.
Learn more »
Give kudos to tab author, rate the tab!
1 2 3 4 5
comments
print report bad tab
2 comments total.
0 reply
bassplaya53 3,071 May 23, 2008 04:27 PM

its worth a five but in some parts it is just a little bit off but no ones perfect. if i could work out the slightly off bits i would but its hard to pick out. nice tab btw!

0 reply
chrisjenks 2,712 May 23, 2008 09:45 PM

thanks. when i get my bass back in a month i'll check it over and correct the bits.

guest
You may want to rate the tab now too:
select rating
Wanna post a correction for this tab? Suggest correction