Oops, an error
Loading. Please wait.

A Sadness Runs Through Him bass

980 views 6 this week
3 commentsread comments
1 2 3 4 5
1 last vote to show rating
add to favorites
×
Save as Personal and add changes to this tab that will be seen only by you. Learn more ›
×
You can save this tab as Personal to edit and correct it or add notes. All changes will be seen only by you. Learn more »
launch autoscroll
font size
0
reset
guitar tuner
edit
Autoscroll
slow
fast
+/-
esc
set tempo
stop
Author
Difficulty
G|----7h9------------------7h9----12-9--------|
D|9------11---5---7---9-------11-------12-7---|
A|--------------------------------------------|
E|--------------------------------------------|

G|----7h9-------------------------7h9-----12-9----------|
D|9------11---\p0-5---7-------9------11--------12-7-9-7-|
A|----------------------7-------------------------------|
E|------------------------7-5---------------------------|

G|----------------------------------------------------------------------|
D|----7---5---7-------7----5--4-7------------5---7----9----11-----12----|
A|2---------------2------7---------5-2---0----------7----9-----10-----9-|
E|----------------------------------------------------------------------|

G|-------------------12~----------------------|
D|9----11-----12--10--------9-7-------5-------|
A|---9-----10---------------------5-7-----7-5-|
E|--------------------------------------------|

G|-----------------------------------------------|
D|-------------7-7-7-----------------------5-----|
A|-------------------2~-----------------5h7--7-5-|
E|----------------------------------3------------|

G|----7h9--------------------7h9----12-9---------|
D|9------11---5--8-7--8-9-------11-------12-7\---|
A|-----------------------------------------------|
E|-----------------------------------------------|

G|----7h9-------------------7h9-----------12-9--------|
D|9------11---5---7-5-8-9------11-1111-11------12-7---|
A|----------------------------------------------------|
E|----------------------------------------------------|

G|----------------------------------------------------------------------|
D|----7---5---7-------7----5--4-7------------5---7----9----11-----12----|
A|2---------------2------7---------5-2---0----------7----9-----10-----9-|
E|----------------------------------------------------------------------|

G|----------------------------------------------------------------------|
D|----7---5---7-------7----5--4-7------------5---7----9----11-----12----|
A|2---------------2------7---------5-2---0----------7----9-----10-----9-|
E|----------------------------------------------------------------------|

G|-------------------12~----------------------|
D|9----11-----12--10--------9-7-------5-------|
A|---9-----10---------------------5-7-----7-5-|
E|--------------------------------------------|

G|----------------------------------------------|
D|----------------------------------------------|
A|-------------------2~---------------7-7-7-5-2-|
E|----------------------------------------------|

G|---------------------------|  |------------------------------|
D|---------------------------|  |---------------7-7-7-5~-------|
A|2--2--2-2--2-2-------------|x2|2--2--2-2--2-2------------7-5-|x2
E|---------------5-5-5-3-3-3-|  |------------------------------|

G|---11-----11-12-11--9-|  |--------------------|
D|9-----11--------------|  |--------------------|
A|----------------------|x3|7---7-5-4-------4-5-|x2
E|----------------------|  |----------3---3-----|

G|----------------------|
D|(7)~------------------|(You can play either)
A|(0)~------------------|
E|----------------------|

            
            
Suggest correction
Creating personal tab
Creating personal tab
You can edit any tab online and save it as your Personal.

You can edit, replace or remove any tab part or add personal notes – all changes will be seen only by you.

Personal tabs can be accessed anytime from any device, even offline.
Learn more »
Give kudos to tab author, rate the tab!
1 2 3 4 5
comments
print report bad tab
3 comments total.
0 reply
dakota_s_ 277 Aug 30, 2014 02:15 PM

Lack of accuracy. Clearly wrong.

0 reply
IndieJoe 1,997 Sep 09, 2014 06:52 AM

I am terribly sorry for all of my unworthy tabs - If you would like to write a better one feel free, otherwise, take the basics of what I have written and run away with them, like what I've had to do with so many 5 star tabs on this website.

All the best for your tabs.

0 reply
dakota_s_ 277 Sep 09, 2014 06:58 AM

Lo wow "my" post makes me sound like such a dick. Yes I gave it two stars but let it be known the website wrote those things for me. I definitely am using this tab as a base for learning this song so it's not like I'm just tossing it aside. It is a good place to get going with the song and it is appreciated.

Cheers man and thanks for the ground work. Honestly it is really helpful.

guest
You may want to rate the tab now too:
select rating
Wanna post a correction for this tab? Suggest correction