Oops, an error
Loading. Please wait.

Worst Case Scenario bass

version 1
version 1

Whole song

Interactive

1,099 views 3 this week
no commentswrite comment
1 2 3 4 5
1 last vote to show rating
add to favorites
×
Save as Personal and add changes to this tab that will be seen only by you. Learn more ›
×
You can save this tab as Personal to edit and correct it or add notes. All changes will be seen only by you. Learn more »
launch autoscroll
font size
0
reset
guitar tuner
edit
Autoscroll
slow
fast
+/-
esc
set tempo
stop
Author
Difficulty
Song-worst case scenario
Tabbed by-poxonaor
Email-hazzpoxon@hotmail.com
If you think this tab is good send suggestions to me through my email above :D


Drum start

Guitar and vocals

intro (numbers are seventeen and nineteen not one and seven etc.)
g---------19~-|
d-17---19-----|
a---17~-------|
e-------------|

verse
g--------------------------------------22-44-66-77-99-|
d--------4-------------------4-22-44-55---------------|
a-2~-4-5~-----7-5-4-5-2~-4-5~-------------------------|
e----------3~-----------------------------------------|

chorus (listen for rhythm)
g-----------------------------------------------------7--|
d---------7--7~--5--5~-5--5-7---------7--7~--5--5~-5/9-9-|
a-5-5-5-5---------------------5-5-5-5--------------------|
e--------------------------------------------------------|

break
g---------------------------------|
d-----------------5-5-5-5-5-4-2-0-|
a-5-5-5-5-7-7-7-7-----------------|
e---------------------------------|

pre verse
g---------------------------------------------------|
d---------------------------------------------------|
a-2-2-5~----5~----5~-------2-2-5~----5~----5---7757-|
e-------5-5---3-3---0-03-3-------5-5---3-3---0------|

verse
g---------------|
d---------------|
a-2~-0~---------|
e-------0-2-3-2-|

g-------------------|
d-------------------|
a-2~-0~---------2-5-|
e-------0-2-3-5-----|

g-------------------------|
d-----------4-------------|
a-2-2-4-5-5-------7-5-4-5-|
e-------------3-3---------|
alternate way of playing before chorus
g----------------------------66-77-99-|
d----------------------77-99----------|
a-2-2-4-5-9-77-99-1010----------------|
e-------------------------------------|

chorus
g-----------------------------------------------------7--|
d---------7--7~--5--5~-5--5-7---------7--7~--5--5~-5/9-9-|
a-5-5-5-5---------------------5-5-5-5--------------------|
e--------------------------------------------------------|

break
g---------------------------------|
d-----------------5-5-5-5-5-4-2-0-|
a-5-5-5-5-7-7-7-7-----------------|
e---------------------------------|

g---------------------------------|
d-----------------5-5-5-5-5-5-5-5-|
a-5-5-5-5-7-7-7-7-----------------|
e---------------------------------|

pray one day i'll listen to you break a smile x2

bridge (numbers are eleven's and twelves etc.)
g------------11-------------------------11-|
d---/9~-11-12~-----14-12-11-12-9~-10-12~---|
a-2/------------10~------------------------|
e------------------------------------------|

g--------------------66-77-99-            g----------22-44-66-77-99--|
d------------99-1010----------            d-22-44-55-----------------|
a-77-99-1010------------------   or     a----------------------------|
e-----------------------------            e--------------------------|

chorus
g-----------------------------------------------------7--|
d---------7--7~--5--5~-5--5-7---------7--7~--5--5~-5/9-9-|
a-5-5-5-5---------------------5-5-5-5--------------------|
e--------------------------------------------------------|

g-----------------------------------------------------------|
d---------7--7~--5--5~-5-757----------7--7~--5--5~-5-4---4--|
a-5-5-5-5---------------------5-5-5-5------------------7----|
e-----------------------------------------------------------|

Outro
g---------------------------------|
d-----------------5-5-5-5-5-5-5-7-|
a-5-5-5-5-7-7-7-7-----------------|
e---------------------------------|

g-------------------------------7--|
d-----------------5-5-5-5-5-5/-9-9-|
a-5-5-5-5-7-7-7-7------------------|
e----------------------------------|

g----------------------------------|
d-----------------5-5-5-5-5-5-7757-|
a-5-5-5-5-7-7-7-7------------------|
e----------------------------------|

g----------------------------------66-|
d-----------------5-5-5-5-55-77-99----|
a-5-5-5-5-7-7-7-7---------------------|
e-------------------------------------|

Hope you enjoy it!

            
            
Suggest correction
Creating personal tab
Creating personal tab
You can edit any tab online and save it as your Personal.

You can edit, replace or remove any tab part or add personal notes – all changes will be seen only by you.

Personal tabs can be accessed anytime from any device, even offline.
Learn more »
Give kudos to tab author, rate the tab!
1 2 3 4 5
comments
print report bad tab
guest
You may want to rate the tab now too:
select rating
Wanna post a correction for this tab? Suggest correction