Oops, an error
Loading. Please wait.

And We Danced bass

187 views 9 this week
1 commentread comment
1 2 3 4 5
2 more votes to show rating
add to favorites
×
Save as Personal and add changes to this tab that will be seen only by you. Learn more ›
×
You can save this tab as Personal to edit and correct it or add notes. All changes will be seen only by you. Learn more »
launch autoscroll
font size
0
reset
guitar tuner
backing track
0:00
0:00
edit
Autoscroll
slow
fast
+/-
esc
set tempo
stop
[INTRO]
      (rest x7)
G|-----------------||-----------------|
D|-----------------||-----------------|
A|-----------------||-----------5/12\-|
E|-----------------||-----------------|
   1 + 2 + 3 + 4 +    1 + 2 + 3 + 4 + 

         (x3)                                 (x3)
G|-----------------||-----------------||-----------------||-----------------|
D|-----------------||-----------------||-----------------||-----------------|
A|-----------------||-5-5-5-9-9-9-9---||-----------------||-5-5-5-9-9-9-9---|
E|-5-5-5-5-5-5-5-5-||---------------5-||-5-5-5-5-5-5-5-5-||---------------5-|
   1 + 2 + 3 + 4 +    1 + 2 + 3 + 4 +    1 + 2 + 3 + 4 +    1 + 2 + 3 + 4 +

        (x3)                    6/4
G|-----------------||-------------------------|
D|-----------------||-------------------------|
A|-----------------||-------------------------|
E|-5-5-5-5-5-5-5-5-||-2-----------------5/12\-|
   1 + 2 + 3 + 4 +    1 + 2 + 3 + 4 + 5 + 6 +


[VERSE 1]

G|-----------------|-----------------|-----------------|-----------------|
D|-----------------|-----------------|-----------------|-----------------|
A|-----------------|-----------------|-----------------|-5---r-5-5---r---|
E|-0---r-5-5---r---|-0---r-5-5---r---|-0---r-2-2---r---|-----------------|
   1 + 2 + 3 + 4 +   1 + 2 + 3 + 4 +   1 + 2 + 3 + 4 +   1 + 2 + 3 + 4 +

G|-----------------|-----------------|-----------------|-----------------|
D|-----------------|-----------------|-----------------|-----------------|
A|-5---r-----------|-----------------|-----------------|-5---r-5-5---r---|
E|-------5-5---r---|-0---r-5-5---r---|-0---r-2-2---r---|-----------------|
   1 + 2 + 3 + 4 +   1 + 2 + 3 + 4 +   1 + 2 + 3 + 4 +   1 + 2 + 3 + 4 +

G|-----------------|-----------------|-----------------|-----------------|
D|-----------------|-----------------|-----------------|-----------------|
A|-5---r-----------|-----------------|-----------------|-5---r-5-5---r---|
E|-------5-5---r---|-0---r-5-5---r---|-0---r-2-2---r---|-----------------|
   1 + 2 + 3 + 4 +   1 + 2 + 3 + 4 +   1 + 2 + 3 + 4 +   1 + 2 + 3 + 4 +

G|-----------------|-----------------|-----------------|-----------------|
D|-----------------|-----------------|-----------------|-----------------|
A|-5---r-----------|-----------------|---------------5-|-5-5-5-5-5-4-----|
E|-------5-5---r---|-0---r-5-5---r---|-0---r-2-2---r---|-------------7-5-|
   1 + 2 + 3 + 4 +   1 + 2 + 3 + 4 +   1 + 2 + 3 + 4 +   1 + 2 + 3 + 4 +


[CHORUS 1]

G|-----------------|-----------------|-----------------|-----------------|
D|-----------------|-----------------|-----------------|-----------------|
A|-----------------|-5-5-5-----------|-----------------|-5-5-5-9-9-9-9---|
E|-5-5-5-5-5-5-5-5-|-------5-5-5-5-5-|-0-0-4-0-5-5-5-5-|---------------5-|
   1 + 2 + 3 + 4 +   1 + 2 + 3 + 4 +   1 + 2 + 3 + 4 +   1 + 2 + 3 + 4 +
                                                                   6/4
G|-----------------|-----------------|-----------------|-------------------------|
D|-----------------|-----------------|-----------------|-------------------------|
A|-----------------|-5-5-5-----------|-----------------|-------------------------|
E|-5-5-5-5-5-5-5-5-|-------5-5-5-5-5-|-0-0-4-0-5-5-5-5-|-2-----------------5/14\-|
   1 + 2 + 3 + 4 +   1 + 2 + 3 + 4 +   1 + 2 + 3 + 4 +   1 + 2 + 3 + 4 + 5 + 6 +


[VERSE 2]

G|-----------------|-----------------|-----------------|-----------------|
D|-----------------|-----------------|-----------------|-----------------|
A|-----------------|-----------------|-----------------|-5---r-5-5---r---|
E|-0---r-5-5---r---|-0---r-5-5---r---|-0---r-2-2---r---|-----------------|
   1 + 2 + 3 + 4 +   1 + 2 + 3 + 4 +   1 + 2 + 3 + 4 +   1 + 2 + 3 + 4 +

G|-----------------|-----------------|-----------------|-----------------|
D|-----------------|-----------------|-----------------|-----------------|
A|-5---r-----------|-----------------|-----------------|-5---r-5-5---r---|
E|-------5-5---r---|-0---r-5-5---r---|-0---r-2-2---r---|-----------------|
   1 + 2 + 3 + 4 +   1 + 2 + 3 + 4 +   1 + 2 + 3 + 4 +   1 + 2 + 3 + 4 +

G|-----------------|-----------------|-----------------|-----------------|
D|-----------------|-----------------|-----------------|-----------------|
A|-5---r-----------|-----------------|-----------------|-5---r-5-5---r---|
E|-------5-5---r---|-0---r-5-5---r---|-0---r-2-2---r---|-----------------|
   1 + 2 + 3 + 4 +   1 + 2 + 3 + 4 +   1 + 2 + 3 + 4 +   1 + 2 + 3 + 4 +

G|-----------------|-----------------|-----------------|-----------------|
D|-----------------|-----------------|-----------------|-----------------|
A|-5---r-----------|-----------------|---------------5-|-5-5-5-5-5-4-----|
E|-------5-5---r---|-0---r-5-5---r---|-0---r-2-2---r---|-------------7-5-|
   1 + 2 + 3 + 4 +   1 + 2 + 3 + 4 +   1 + 2 + 3 + 4 +   1 + 2 + 3 + 4 +
 

[CHORUS 2]

G|-----------------|-----------------|-----------------|-----------------|
D|-----------------|-----------------|-----------------|-----------------|
A|-----------------|-5-5-5-----------|-----------------|-5-5-5-9-9-9-9---|
E|-5-5-5-5-5-5-5-5-|-------5-5-5-5-5-|-0-0-4-0-5-5-5-5-|---------------5-|
   1 + 2 + 3 + 4 +   1 + 2 + 3 + 4 +   1 + 2 + 3 + 4 +   1 + 2 + 3 + 4 +

G|-----------------|-----------------|-----------------|-----------------|
D|-----------------|-----------------|-----------------|---4-7-----------|
A|-----------------|-5-5-5-----------|-----------------|-5-----4---------|
E|-5-5-5-5-5-5-5-5-|-------5-5-5-5-5-|-0-0-4-0-5-5-5-5-|-----------7-7-5-|
   1 + 2 + 3 + 4 +   1 + 2 + 3 + 4 +   1 + 2 + 3 + 4 +   1 + 2 + 3 + 4 +

G|-----------------|-----------------|-----------------|-----------------|
D|-----------------|-----------------|-----------------|-----------------|
A|-----------------|-5-5-5-----------|-----------------|-5-5-5-9-9-9-9---|
E|-5-5-5-5-5-5-5-5-|-------5-5-5-5-5-|-0-0-4-0-5-5-5-5-|---------------5-|
   1 + 2 + 3 + 4 +   1 + 2 + 3 + 4 +   1 + 2 + 3 + 4 +   1 + 2 + 3 + 4 +
                                                                   6/4
G|-----------------|-----------------|-----------------|-------------------------|
D|-----------------|-----------------|-----------------|-------------------------|
A|-----------------|-5-5-5-----------|-----------------|-------------------------|
E|-5-5-5-5-5-5-5-5-|-------5-5-5-5-5-|-0-0-4-0-5-5-5-5-|-2-----------------------|
   1 + 2 + 3 + 4 +   1 + 2 + 3 + 4 +   1 + 2 + 3 + 4 +   1 + 2 + 3 + 4 + 5 + 6 +


[BRIDGE]

G|-----------------|-----------------|-----------------|-----------------|
D|-----------------|-----------------|-----------------|-----------------|
A|------------/9---|-7---------------|-----------0/7---|-5-------------\-|
E|-7---------------|-----------------|-9---------------|-----------------|
   1 + 2 + 3 + 4 +   1 + 2 + 3 + 4 +   1 + 2 + 3 + 4 +   1 + 2 + 3 + 4 +

G|-----------------|-----------------|-----------------|-----------------|
D|-----------------|-----------------|-----------------|-----------------|
A|------------/9---|-7---------------|-----------0/7---|-5----\0---------|
E|-7---------------|-----------------|-9---------------|-------------2---|
   1 + 2 + 3 + 4 +   1 + 2 + 3 + 4 +   1 + 2 + 3 + 4 +   1 + 2 + 3 + 4 +

G|-----------------|-----------------|-----------------|-----------------|
D|-----------------|-----------------|-----------------|-----------------|
A|------------/9---|-7---------------|-----------0/7---|-5-------------\-|
E|-7---------------|-----------------|-9---------------|-----------------|
   1 + 2 + 3 + 4 +   1 + 2 + 3 + 4 +   1 + 2 + 3 + 4 +   1 + 2 + 3 + 4 +

G|-----------------|-----------------|-----------------|-----------------|
D|-----------------|-----------------|-----------------|-----------------|
A|------------/9---|-7---------------|-----------------|-5-5-5-5-5-4-----|
E|-7---------------|-----------------|-2-2-2-2-2-2-2-2-|-------------7-5-|
   1 + 2 + 3 + 4 +   1 + 2 + 3 + 4 +   1 + 2 + 3 + 4 +   1 + 2 + 3 + 4 +


[CHORUS 3]

G|-----------------|-----------------|-----------------|-----------------|
D|-----------------|-----------------|-----------------|-----------------|
A|-----------------|-5-5-5-----------|-----------------|-5-5-5-9-9-9-9---|
E|-5-5-5-5-5-5-5-5-|-------5-5-5-5-5-|-0-0-4-0-5-5-5-5-|---------------5-|
   1 + 2 + 3 + 4 +   1 + 2 + 3 + 4 +   1 + 2 + 3 + 4 +   1 + 2 + 3 + 4 +

G|-----------------|-----------------|-----------------|-----------------|
D|-----------------|-----------------|-----------------|---4-7-----------|
A|-----------------|-5-5-5-----------|-----------------|-5-----4---------|
E|-5-5-5-5-5-5-5-5-|-------5-5-5-5-5-|-0-0-4-0-5-5-5-5-|-----------7-7-5-|
   1 + 2 + 3 + 4 +   1 + 2 + 3 + 4 +   1 + 2 + 3 + 4 +   1 + 2 + 3 + 4 +

G|-----------------|-----------------|-----------------|-----------------|
D|-----------------|-----------------|-----------------|-----------------|
A|-----------------|-5-5-5-----------|-----------------|-5-5-5-9-9-9-9---|
E|-5-5-5-5-5-5-5-5-|-------5-5-5-5-5-|-0-0-4-0-5-5-5-5-|---------------5-|
   1 + 2 + 3 + 4 +   1 + 2 + 3 + 4 +   1 + 2 + 3 + 4 +   1 + 2 + 3 + 4 +

G|-----------------|-----------------|-----------------|-----------------|
D|-----------------|-----------------|-----------------|---4-7-----------|
A|-----------------|-5-5-5-----------|-----------------|-5-----4---------|
E|-5-5-5-5-5-5-5-5-|-------5-5-5-5-5-|-0-0-4-0-5-5-5-5-|-----------7-7-5-|
   1 + 2 + 3 + 4 +   1 + 2 + 3 + 4 +   1 + 2 + 3 + 4 +   1 + 2 + 3 + 4 +


[OUTRO] (Repeat to fade out)

G|-----------------|-----------------|-----------------|-----------------|
D|-----------------|-----------------|-----------------|-----------------|
A|-----------------|-5-5-5-----------|-----------------|-5-5-5-9-9-9-9---|
E|-5-5-5-5-5-5-5-5-|-------5-5-5-5-5-|-0-0-4-0-5-5-5-5-|---------------5-|
   1 + 2 + 3 + 4 +   1 + 2 + 3 + 4 +   1 + 2 + 3 + 4 +   1 + 2 + 3 + 4 +

G|-----------------|-----------------|-----------------|-----------------|
D|-----------------|-----------------|-----------------|---4-7-----------|
A|-----------------|-5-5-5-----------|-----------------|-5-----4---------|
E|-5-5-5-5-5-5-5-5-|-------5-5-5-5-5-|-0-0-4-0-5-5-5-5-|-----------7-7-5-|
   1 + 2 + 3 + 4 +   1 + 2 + 3 + 4 +   1 + 2 + 3 + 4 +   1 + 2 + 3 + 4 +


LEGEND
/ = slide up
\ = slide down
r = rest

            
            
Suggest correction
Creating personal tab
Creating personal tab
You can edit any tab online and save it as your Personal.

You can edit, replace or remove any tab part or add personal notes – all changes will be seen only by you.

Personal tabs can be accessed anytime from any device, even offline.
Learn more »
Give kudos to tab author, rate the tab!
1 2 3 4 5
comments
print report bad tab
1 comment total.
0 reply
LoudLon 347 4 days ago

I wrote this for BigBassTabs.com It was submitted here without my knowledge or approval.

guest
You may want to rate the tab now too:
select rating
Wanna post a correction for this tab? Suggest correction