Oops, an error
Loading. Please wait.

Hang Your Cross bass

721 views 1 this week
no commentswrite comment
1 2 3 4 5
3 more votes to show rating
add to favorites
×
Save as Personal and add changes to this tab that will be seen only by you. Learn more ›
×
You can save this tab as Personal to edit and correct it or add notes. All changes will be seen only by you. Learn more »
launch autoscroll
font size
0
reset
guitar tuner
edit
Autoscroll
slow
fast
+/-
esc
set tempo
stop
The Hope Conspiracy – Hang Your Cross
D flat Tuning

This is a pretty easy song to play.  It has a lot of small parts and is barely two 
 As with all of my tabs comments, constructive criticism, suggestion are all welcome.  Thanks 
enjoy! :)

Tune the E string one and a half step down to D flat and everything else a half-step 
so they’re flat too.

Slide down = \
Slide up = /

Intro – 0:18 – (Play first part x4)
G|--------------------------------------|
D|--------------------------------------|
A|--------------------------------------|
D|--2-2-222--0-0-000--2-2-222-222-222---|

Part A – 0:34 – (He freeplays this note so just listen to the rhythm and play along)
G|------|
D|------|
A|------|
D|--0---|

Intro – 0:41 – (x4)

Part B – 0:59 – (Play first part x1, Each note is freeplayed in the second part)
G|------------|---------|
D|------------|---------|
A|-----7777---|--5------|
D|--2/--------|-----0---|

Breakdown – 1:14 – (x1)
G|---------------------------|
D|---------------------------|
A|---------------------10\---|
D|--00-0-00-0--00-0-00-------|

Alt. Breakdown – 1:21 – (x1)
G|------------------------|
D|------------------------|
A|-----5----5----5----1---|
D|--00---00---00---00-----|

Part C – 1:29 – (Play first part x2, Second part x3, Third part x1)
G|-------------------------|-------------|-------------------|
D|-------------------------|-------------|-------------------|
A|--5553-55555-555-5-555---|--55535553---|--5553-1111-1111---|
G|-------------------------|-------------|-------------------|

Alt. Breakdown – 1:45 – (x1)

Part D – 1:52 – (x1)
G|--------------------------------------------|
D|--------------------------------------------|
A|-------5555------5555------5555------1111---|
D|--0000------0000------0000------0000--------|

Ending – 2:00
G|------|
D|------|
A|------|
D|--0---|

            
            
Suggest correction
Creating personal tab
Creating personal tab
You can edit any tab online and save it as your Personal.

You can edit, replace or remove any tab part or add personal notes – all changes will be seen only by you.

Personal tabs can be accessed anytime from any device, even offline.
Learn more »
Give kudos to tab author, rate the tab!
1 2 3 4 5
comments
print report bad tab
guest
You may want to rate the tab now too:
select rating
Wanna post a correction for this tab? Suggest correction