Oops, an error
Loading. Please wait.

Sun tab

1,363 views 6 this week
2 commentsread comments
1 2 3 4 5
x 3
add to favorites
×
Save as Personal and add changes to this tab that will be seen only by you. Learn more ›
×
You can save this tab as Personal to edit and correct it or add notes. All changes will be seen only by you. Learn more »
launch autoscroll
font size
0
reset
how to read this tab
guitar tuner
edit
Autoscroll
slow
fast
+/-
esc
set tempo
stop
The Hotelier - Sun


Tuning: Half-step down

Intro:
eb|-------------------------------------------------------------|
Bb|-------------------------------------------------------------|
Gb|-------------------------------------------------------------|
Db|---4---2-2--2---4---2-2-2-2-2---4---2-2--2--2-2-2-2-2-2-2-2--|
Ab|---5---3-3--3---5---3-3-3-3-3---5---3-3--3--2-2-2-2-2-2-2-2--|
Eb|--------------------------------------------0-0-0-0-0-0-0-0--|

Verse: (0:31)
eb|-------------------------------------------------------------|
Bb|---7---3-3--3---7---3-3-3-3-3---7---3-3--3--3-3-3-3-3-3-3-3--|
Gb|---0---0-0--0---0---0-0-0-0-0---0---0-0--0--0-0-0-0-0-0-0-0--| x2
Db|---4---2-2--2---4---2-2-2-2-2---4---2-2--2--2-2-2-2-2-2-2-2--|
Ab|---5---3-3--3---5---3-3-3-3-3---5---3-3--3--2-2-2-2-2-2-2-2--|
Eb|--------------------------------------------0-0-0-0-0-0-0-0--|

Interlude: (0:46)
eb|--------------------------------------------------------------------|
Bb|---------------------------------------------------3-3-3-3-3-3-3-3--|
Gb|--------------0----------------0---------------0---0-0-0-0-0-0-0-0--|
Db|----4/2-0------------4/2-0-----------4/2-0---------2-2-2-2-2-2-2-2--|
Ab|----------3----------------3----------------3------2-2-2-2-2-2-2-2--|
Eb|---------------------------------------------------0-0-0-0-0-0-0-0--|
  |                                                                    |  x2
eb|----------3----------------3---------------3------------------------|
Bb|----3---------3------3---------3-----3---------3--------------------|
Gb|------0----------------0---------------0----------------------------|
Db|--0-----0----------0-----0---------0-----0---------2-2-2-2-2-2-2-2--|
Ab|------------3---3------------3---3-----------3---3-2-2-2-2-2-2-2-2--|
Eb|---------------------------------------------------0-0-0-0-0-0-0-0--|

Verse: (1:02)
eb|-------------------------------------------------------------|
Bb|---7---3-3--3---7---3-3-3-3-3---7---3-3--3--3-3-3-3-3-3-3-3--|
Gb|---0---0-0--0---0---0-0-0-0-0---0---0-0--0--0-0-0-0-0-0-0-0--| x2
Db|---4---2-2--2---4---2-2-2-2-2---4---2-2--2--2-2-2-2-2-2-2-2--|
Ab|---5---3-3--3---5---3-3-3-3-3---5---3-3--3--2-2-2-2-2-2-2-2--|
Eb|--------------------------------------------0-0-0-0-0-0-0-0--|

Chorus: (1:17)
eb|--------------------------------------------------|
Bb|--------------------------------------------------|
Gb|-----7-------6---------------4---------------4----|  x4
Db|-0---0---0---0---0-----0-----0---0-----0---0-0-0--|
Ab|-5-5-5-5-4-4-4-4-2-2-2-2-2-2-2-2-2-2-2-2-2-2-2-2--|
Eb|-7-7-7-7-5-5-5-5-3-3-3-3-3-3-3-3-3-3-3-3-3-3-3-3--|

Verse/Interlude: (1:40)
eb|--------------------------------------------------------------------|
Bb|---------------------------------------------------3-3-3-3-3-3-3-3--|
Gb|---------------0---------------0---------------0---0-0-0-0-0-0-0-0--|
Db|-----4/2-0-----------4/2-0-----------4/2-0---------2-2-2-2-2-2-2-2--|
Ab|-0h3-------3-----0h3-------3-----0h3--------3------2-2-2-2-2-2-2-2--|
Eb|---------------------------------------------------0-0-0-0-0-0-0-0--|
  |                                                                    |  x4
eb|--------------------------------------------------------------------|
Bb|--------------------------------------------------------------------|
Gb|--------------------------------------------------------------------|
Db|---------------------------------------------------2-2-2-2-2-2-2-2--|
Ab|---------------------------------------------------2-2-2-2-2-2-2-2--|
Eb|---------------------------------------------------0-0-0-0-0-0-0-0--|

Verse: (2:11)
eb|-------------------------------------------------------------|
Bb|---7---3-3--3---7---3-3-3-3-3---7---3-3--3--3-3-3-3-3-3-3-3--|
Gb|---0---0-0--0---0---0-0-0-0-0---0---0-0--0--0-0-0-0-0-0-0-0--| x4
Db|---4---2-2--2---4---2-2-2-2-2---4---2-2--2--2-2-2-2-2-2-2-2--|
Ab|---5---3-3--3---5---3-3-3-3-3---5---3-3--3--2-2-2-2-2-2-2-2--|
Eb|--------------------------------------------0-0-0-0-0-0-0-0--|

Chorus: (1:17)
eb|--------------------------------------------------|
Bb|--------------------------------------------------|
Gb|-----7-------6---------------4---------------4----|  x3
Db|-0---0---0---0---0-----0-----0---0-----0---0-0-0--|
Ab|-5-5-5-5-4-4-4-4-2-2-2-2-2-2-2-2-2-2-2-2-2-2-2-2--|
Eb|-7-7-7-7-5-5-5-5-3-3-3-3-3-3-3-3-3-3-3-3-3-3-3-3--|

eb|------------------------------------------------------------------|
Bb|------------------------------------------------------------------|
Gb|-----7-------6---0------------(0)---------------(0)---------------|
Db|-0---0---0---0---0-0-0-0-0-0-0-0-0-0-0-0-0-0-0-0-0-0-0-0-0-0-0-0--|
Ab|-5-5-5-5-4-4-4-4-3-3-3-3-3-3-3-3-3-3-3-3-3-3-3-3-3-3-3-3-3-3-3-3--|
Eb|-7-7-7-7-5-5-5-5--------------------------------------------------|
                        ^this chord gets played for a while now^

Until: (4:41)
eb|-3--3-33-2--2-22--------------------------------------------------------------------------|
Bb|-3--3-33-3--3-33-3--3-33-3-------------3---------------3-----------------3-3-3-3-3-3-3-3--|
Gb|-0--0-00-2--2-22-0--0-00-0-0-0-0-0-0-0-0-0-0-0-0-0-0-0-0-0-0-0-0-0-0-0-0-0-0-0-0-0-0-0-0--|
Db|-2--2-22-0--0-00-0--0-00-0-0-0-0-0-0-0-0-0-0-0-0-0-0-0-0-0-0-0-0-0-0-0-0-0-0-0-0-0-0-0-0--|
Ab|-2--2-22---------2--2-22-3-3-3-3-3-3-3-3-3-3-3-3-3-3-3-3-3-3-3-3-3-3-3-3-3-3-3-3-3-3-3-3--|
Eb|-0--0-00----------------------------------------------------------------------------------|

Repeat until the end, end with:
eb|------------------------------------------------|
Bb|-3----------------------------------------------|
Gb|-0-------------------------------0--------------|
Db|-0-0-0-0-0-0-0-0-0-0-0-0-0-0-0-0-0--------------|
Ab|-3-3-3-3-3-3-3-3-3-3-3-3-3-3-3-3-3--------------|
Eb|------------------------------------------------|




            
            
Suggest correction
Creating personal tab
Creating personal tab
You can edit any tab online and save it as your Personal.

You can edit, replace or remove any tab part or add personal notes – all changes will be seen only by you.

Personal tabs can be accessed anytime from any device, even offline.
Learn more »
Give kudos to tab author, rate the tab!
1 2 3 4 5
comments
print report bad tab
2 comments total.
0 reply
robargarthan 77 Jun 09, 2016 01:48 PM

Looks pretty good to me, I would just change a few things.

I think the interlude is more like this:
eb|--------------------------------------------------------------------|
Bb|----------------------------------------------------3-3-3-3-3-3-3---|
Gb|-------0------0---------0------0---------0------0---0-0-0-0-0-0-0---|
Db|--------4p0--------------4p0--------------4p0-------0-0-0-0-0-0-0---|
Ab|----3/5----3---------3/5----3---------3/5----3----3-2-2-2-2-2-2-2---|
Eb|--------------------------------------------------------------------|

I think the in the intro and verses, instead of this chord:

eb|-------|
Bb|---3---|
Gb|---0---|
Db|---2---|
Ab|---2---|
Eb|---0---|

It's supposed to be this one:

eb|-------|
Bb|---3---|
Gb|---0---|
Db|---0---|
Ab|---2---|
Eb|-------|

0 reply
Rockz0r 31 Aug 09, 2016 09:04 AM

Hey man, nice tab. Only suggestion I have is for the verse:

instead of:

Verse: (0:31)
eb|-------------------------------------------------------------|
Bb|---7---3-3--3---7---3-3-3-3-3---7---3-3--3--3-3-3-3-3-3-3-3--|
Gb|---0---0-0--0---0---0-0-0-0-0---0---0-0--0--0-0-0-0-0-0-0-0--| x2
Db|---4---2-2--2---4---2-2-2-2-2---4---2-2--2--2-2-2-2-2-2-2-2--|
Ab|---5---3-3--3---5---3-3-3-3-3---5---3-3--3--2-2-2-2-2-2-2-2--|
Eb|--------------------------------------------0-0-0-0-0-0-0-0--|

the following sounds closer (imho):
Verse: (0:31)
eb|-------------------------------------------------------------|
Bb|--------------------------------------------3-3-3-3-3-3-3-3--|
Gb|---7---0-0--0---7---0-0-0-0-0---7---0-0--0--0-0-0-0-0-0-0-0--| x2
Db|---4---2-2--2---4---2-2-2-2-2---4---2-2--2-------------------|
Ab|---5---3-3--3---5---3-3-3-3-3---5---3-3--3--2-2-2-2-2-2-2-2--|
Eb|-------------------------------------------------------------|

guest
You may want to rate the tab now too:
select rating
Wanna post a correction for this tab? Suggest correction