Oops, an error
Loading. Please wait.

Your Deep Rest tab

version 2
version 2

Whole song

4,714 views 12 this week
4 commentsread comments
1 2 3 4 5
x 5
add to favorites
×
Save as Personal and add changes to this tab that will be seen only by you. Learn more ›
×
You can save this tab as Personal to edit and correct it or add notes. All changes will be seen only by you. Learn more »
launch autoscroll
font size
0
reset
how to read this tab
guitar tuner
edit
Autoscroll
slow
fast
+/-
esc
set tempo
stop
-------------------------------------------------------------------------------
                             Your Deep Rest - The Hotelier
-------------------------------------------------------------------------------

Tabbed by: Derek Miller
Email: millerderekscott@gmail.com

Tuning: Half-step down (Eb-Ab-Db-Gb-Bb-Eb/D#-G#-C#-F#-A#-D#)

Intro/Main Riff
Eb|----4-4-4----4-4-4-|
Bb|-x--5-5-5-x--5-5-5-|
Gb|-x--6-6-6-x--6-6-6-|
Db|-x--6-6-6-x--6-6-6-|
Ab|-x--4-4-4-x--0-0-0-|
Eb|-------------------|


Verse Start/Main Riff 2
Eb|-----------------|
Bb|-----------------|
Gb|-4-4-4-4-5-5-5-5-|
Db|-x-x-x-x-x-x-x-x-|
Ab|-2-2-2-2-3-3-3-3-|
Eb|-----------------|


Chorus
Eb|---------------------------------4-4-4-4-4-4-4-4-4-4-4-4-4-4-4-4-|
Bb|-7-7-7-7-7-7-7-7-7-7-7-7-7-7-7-7-2-2-2-2-2-2-2-2-2-2-2-2-2-2-2-2-|
Gb|-7-7-7-7-7-7-7-7-7-7-7-7-7-7-7-7-2-2-2-2-2-2-2-2-2-2-2-2-2-2-2-2-|
Db|-7-7-7-7-7-7-7-7-7-7-7-7-7-7-7-7-2-2-2-2-2-2-2-2-2-2-2-2-2-2-2-2-|
Ab|-5-5-5-5-5-5-5-5-4-4-4-4-4-4-4-4-0-0-0-0-0-0-0-0-0-0-0-0-0-0-0-0-|
Eb|-----------------------------------------------------------------|

Eb|------------------------------------4-4-4----4-4-4-|
Bb|-7-7-7-7-7-7-7-7-7-7-7-7-7-7-7-7-x--5-5-5-x--5-5-5-|
Gb|-7-7-7-7-7-7-7-7-7-7-7-7-7-7-7-7-x--6-6-6-x--6-6-6-|
Db|-7-7-7-7-7-7-7-7-7-7-7-7-7-7-7-7-x--6-6-6-x--6-6-6-|
Ab|-5-5-5-5-5-5-5-5-4-4-4-4-4-4-4-4-x--0-0-0-x--0-0-0-|
Eb|---------------------------------------------------|


Bridge
Eb|-----------------4---4p0-----|
Bb|-----------------5---5---5---|
Gb|-6-6-6-6-6-6-6-6---------6p4-|
Db|-6-6-6-6-6-6-6-6-------------|
Ab|-4-4-4-4-4-4-4-4-------------|
Eb|-----------------------------|

Eb|-----------------5--5-5-4-4-4-|
Bb|-----------------5--5-5-5-5-5-|
Gb|-6-6-6-6-6-6-6-6--------------|
Db|-6-6-6-6-6-6-6-6--------------|
Ab|-4-4-4-4-4-4-4-4--------------|
Eb|------------------------------|

Eb|---------------------------------|
Bb|---------------------------------|
Gb|-6-6-6-6-6-6-6-6-----------------|
Db|-6-6-6-6-6-6-6-6-7-7-7-7-7-6-6-6-|
Ab|-4-4-4-4-4-4-4-4-7-7-7-7-7-6-6-6-|
Eb|-----------------5-5-5-5-5-4-4-4-|


Post-Bridge
Eb|-4-4-4-4-4-4-4-4-4-4-4-4-4-4-4-4-4-4-4-4-4-4-4-4-4-4-4-4-4-4-4-4-|
Bb|-5-5-5-5-5-5-5-5-5-5-5-5-5-5-5-5-2-2-2-2-2-2-2-2-2-2-2-2-2-2-2-2-|
Gb|-6-6-6-6-6-6-6-6-4-4-4-4-4-4-4-4-2-2-2-2-2-2-2-2-2-2-2-2-2-2-2-2-|
Db|-6-6-6-6-6-6-6-6-4-4-4-4-4-4-4-4-2-2-2-2-2-2-2-2-2-2-2-2-2-2-2-2-|
Ab|-4-4-4-4-4-4-4-4-6-6-6-6-6-6-6-6-0-0-0-0-0-0-0-0-0-0-0-0-0-0-0-0-|
Eb|-----------------------------------------------------------------|

************************************
Legend:

p - pulloff

************************************

            
            
Suggest correction
Creating personal tab
Creating personal tab
You can edit any tab online and save it as your Personal.

You can edit, replace or remove any tab part or add personal notes – all changes will be seen only by you.

Personal tabs can be accessed anytime from any device, even offline.
Learn more »
comments
print report bad tab
4 comments total. Showing first comments.
0 reply
arthurc123 43 Nov 15, 2014 12:54 PM

this is awesome!!! thank you!!!

0 reply
TheUpsides1337 4,553 Dec 22, 2014 10:08 AM

I think the verse start/main riff 2 is a B/C chord the second time (slide your index finger from the 2nd to the 3rd fret but leave your ring finger on the 4th fret). Also that D chord in the chorus sounds totally off to me - I think it might be an E? Otherwise this is good.

0 reply
TheUpsides1337 4,553 Dec 22, 2014 10:10 AM

Actually, I think the chorus is an E power chord, then an Eb/E (slide your index finger from the 7th fret to the 6th but leave your ring finger on the 9th fret). Then it goes to the A chord.

guest
You may want to rate the tab now too:
select rating
Wanna post a correction for this tab? Suggest correction