Oops, an error
Loading. Please wait.

Shes Casual intro tab

version 1
version 1

Intro

Interactive

8,278 views 57 this week
3 commentsread comments
1 2 3 4 5
x 19
add to favorites
×
Save as Personal and add changes to this tab that will be seen only by you. Learn more ›
×
You can save this tab as Personal to edit and correct it or add notes. All changes will be seen only by you. Learn more »
launch autoscroll
font size
0
reset
how to read this tab
guitar tuner
edit
Autoscroll
slow
fast
+/-
esc
set tempo
stop
Author
Difficulty
I worked this tab out from one of the live vids because I couldn't find any tabs for the 
song at all. It's not
perfect but I figured better than nothing. I couldn't get the bridge/solo thing so if 
somebody better than me
could work it out that'd be great.

[Intro/Verse 1]

E|------3---3------3---3-------10---10-------10---10-------7---7-------5---5------3---3-------3---3------|
A|-------------------------------------------------------------------------------------------------------|
D|-------------------------------------------------------------------------------------------------------| X3
G|--------4----------4-----------11------------11------------7-----------6----------4-----------4--------|
B|-------------------------------------------------------------------------------------------------------|
e|-------------------------------------------------------------------------------------------------------|


[Pre-chorus]

E|------0---0------3---3------5---5------5---5----------|
A|------------------------------------------------------|
D|------------------------------------------------------| X1
G|--------0----------4----------6----------6------------|
B|------------------------------------------------------|
e|------------------------------------------------------|


[Chorus 1]

E|------3-----10-----7------5------0-----3------5-----------|
A|----------------------------------------------------------|
D|----------------------------------------------------------| X1
G|----------------------------------------------------------|
B|------4-----11-----7------6------0-----4------6-----------|
e|----------------------------------------------------------|


[Verse]
In the original this bit is slightly palm muted I think.
Pick a strumming pattern you like. In the original it's all downstrokes.

E|----3----3----10----7----5----3----3---------|
A|----5----5----12----9----7----5----5---------|
D|----5----5----12----9----7----5----5---------| X2
G|---------------------------------------------|
B|---------------------------------------------|
e|---------------------------------------------|


[Chorus]
This bit is originally played all single downstrokes.

E|---3-----10-----7-----5-----0-----3-----5-------|
A|---5-----12-----9-----7-----2-----5-----7-------|
D|---5-----12-----9-----7-----2-----5-----7-------| X1
G|------------------------------------------------|
B|------------------------------------------------|
e|------------------------------------------------|


[Post-Chorus]

E|----3---3-----3---3------10---10------10---10------7---7------5---5-----3---3------|
A|-----------------------------------------------------------------------------------|
D|-----------------------------------------------------------------------------------|
G|------4---------4----------11-----------11-----------7----------6---------4--------|
B|-----------------------------------------------------------------------------------|
e|-----------------------------------------------------------------------------------|

[Chorus]

E|---3-----10-----7-----5-----0-----3-----5-------|
A|---5-----12-----9-----7-----2-----5-----7-------|
D|---5-----12-----9-----7-----2-----5-----7-------| X2
G|------------------------------------------------|
B|------------------------------------------------|
e|------------------------------------------------|


[Outro]
Played quietly and strummed slowly so each note is heard.

E|---3-----10-----7-----5--------|
A|---5-----12-----9-----7--------|
D|---5-----12-----9-----7--------| X1
G|---4-----11-----7-----6--------|
B|---3-----11-----7-----5--------|
e|---3-----11-----7-----5--------|

            
            
Suggest correction
Creating personal tab
Creating personal tab
You can edit any tab online and save it as your Personal.

You can edit, replace or remove any tab part or add personal notes – all changes will be seen only by you.

Personal tabs can be accessed anytime from any device, even offline.
Learn more »
comments
print report bad tab
3 comments total.
+1 reply
Jilljoy 54 Jul 19, 2016 07:05 AM

[Bridge]
Still downstrokes, this is what the bridge sounds like for me.

E|---7-----10-------------------------------------|
A|---9-----12-----7-----10------------------------|
D|---9-----12-----9-----12------------------------| x1
G|----------------9-----12------------------------|
B|------------------------------------------------|
e|------------------------------------------------|

+11 reply
EverestUK 74 Sep 07, 2016 09:56 AM

As great as this is... it's upside down :) but great tab after some confusion!

+1 reply
ash.5.stone 10 May 06, 2017 03:18 PM

sounds perfect! (but it is upside down and that's p confusing!)

guest
You may want to rate the tab now too:
select rating
Wanna post a correction for this tab? Suggest correction