Oops, an error
Loading. Please wait.

Love You Much Better bass

1,809 views 6 this week
2 commentsread comments
1 2 3 4 5
1 last vote to show rating
add to favorites
×
Save as Personal and add changes to this tab that will be seen only by you. Learn more ›
×
You can save this tab as Personal to edit and correct it or add notes. All changes will be seen only by you. Learn more »
launch autoscroll
font size
0
reset
guitar tuner
edit
Autoscroll
slow
fast
+/-
esc
set tempo
stop
Difficulty
intermediate
The Hush Sound - Love You Much Better

> By: Martin85 (martinbalvers@gmail.com)
> Tuning: EADG (Standard)

Intro
G|----------------|----------------|
D|----------------|----------------| 
A|----------------|----------------|
E|----------------|----------------|

Verse 1
G|----------------|----------------|----------------|----------------|
D|----------------|--------3---353-|----------------|----------------|
A|3------35-------|3-----3---3-----|----1-1-----0-3-|5-----5-3-------|
E|--3-2-3---3-2-3-|--3-2-----------|2-2-----0-0-----|--3-2----0302030|

G|----------------|----------------|----------------|----------------|
D|----------------|--------3---353-|----------------|----------------|
A|3------35-------|3-----3---3-----|----1-1-----0-3-|5-----5-3-------|
E|--3-2-3---3-2-3-|--3-2-----------|2-2-----0-0-----|--3-2----0302030|

Chorus 1
G|----------------|----------------|----------------|----------------|
D|----------------|----------------|----------------|----------------| 
A|------2-3---3-5-|----------------|------2-3---3-5-|----------------|
E|5-0-5-----3-----|3-3-3-3-1-1-1-3-|5-0-5-----3-----|1-1-1-123-3-3-3-|

G|----------------|----------------|----------------|----------------|
D|----------------|----------------|----------------|----------------| 
A|3---------------|----------------|----------------|----------------|
E|----------------|----------------|----------------|----------------|

Verse 2
G|----------------|----------------|----------------|----------------|
D|----------------|--------3---353-|----------------|----------------|
A|3------35-------|3-----3---3-----|----1-1-----0-3-|5-----5-3-------|
E|--3-2-3---3-2-3-|--3-2-----------|2-2-----0-0-----|--3-2----0302030|

G|----------------|----------------|----------------|----------------|
D|----------------|--2-3-5-3---353-|----------------|----------------|
A|3------35-------|3---------3-----|----1-1-----0-3-|5-----5-3-------|
E|--3-2-3---3-2-3-|----------------|2-2-----0-0-----|--3-2----0302030|

Chorus 2
G|----------------|----------------|----------------|----------------|
D|----------------|----------------|----------------|----------------| 
A|------2-3---3-5-|----------------|------2-3---3-5-|----------------|
E|5-0-5-----3-----|3-3-3-3-1-1-1-3-|5-0-5-----3-----|3-3-3-3-1-1-1030|

G|----------------|----------------|----------------|----------------|
D|----------------|----------------|----------------|----------------| 
A|------2-3---3-5-|----------------|------2-3---3-5-|----------------|
E|5-0-5-----3-----|3-3-3-3-1-1-1-3-|5-0-5-----3-----|1-1-1-123-3-3-3-|

G|----------------|----------------|----------------|----------------|
D|----------------|----------------|----------------|----------------| 
A|3---------------|----------------|----------------|---------------2|
E|----------------|----------------|----------------|----------------|

During solo
G|----------------|----------------|----------------|----------------|
D|----------------|----------------|----------------|----------------| 
A|3-3-3-3-5-5-----|3-3-3-3---------|----1-1-----0-3-|5-----5-3-------|
E|------------3-3-|--------1-1-1-1-|2-2-----0-0-----|--3-2----0302030|

G|----------------|----------------|----------------|----------------|
D|----------------|--2-3-5-3---353-|----------------|----------------|
A|3------35-------|3---------3-----|----1-1-----0-3-|5-----5-3-------|
E|--3-2-3---3-2-3-|----------------|2-2-----0-0-----|--3-2----0302030|

Chorus 3
G|----------------|----------------|----------------|----------------|
D|----------------|----------------|----------------|----------------| 
A|------2-3---3-5-|----------------|------2-3---3-5-|----------------|
E|5-0-5-----3-----|3-3-3-3-1-1-1-3-|5-0-5-----3-----|3-3-3-3-1-1-103-|

G|----------------|----------------|----------------|----------------|
D|----------------|----------------|----------------|----------------| 
A|------2-3---3-5-|----------------|------2-3---3-5-|----------------|
E|5-0-5-----3-----|3-3-3-3-1-1-1-3-|5-0-5-----3-----|3-3-3-3-1-1-103-|

G|----------------|----------------|----------------|----------------|--|
D|----------------|3---353---------|----------------|----------------|--| 
A|------2-3---3-5-|3-------3-------|------2-3---3-5-|----------------|3~|
E|5-0-5-----3-----|--3-------0-1-3-|5-0-5-----3-----|1-1-1-103/5-3-1-|--|

(Thanks to Kiv for figuring out the chords)

            
            
Suggest correction
Creating personal tab
Creating personal tab
You can edit any tab online and save it as your Personal.

You can edit, replace or remove any tab part or add personal notes – all changes will be seen only by you.

Personal tabs can be accessed anytime from any device, even offline.
Learn more »
Give kudos to tab author, rate the tab!
1 2 3 4 5
comments
print report bad tab
2 comments total.
0 reply
BassOrVolume 30 May 09, 2009 06:53 AM

I think So the verse still not sure i think the G must be Em

0 reply
Hobo11 253 Dec 01, 2010 09:43 AM

Yeah for the beginning you play an e where you're playing an Fsharp for some reason.

Also for the second part of that you play an F where you're playing an F sharp.

guest
Wanna post a correction for this tab? Suggest correction