Oops, an error
Loading. Please wait.

Molasses intro tab

2,469 views 1 this week
3 commentsread comments
1 2 3 4 5
x 3
add to favorites
×
Save as Personal and add changes to this tab that will be seen only by you. Learn more ›
×
You can save this tab as Personal to edit and correct it or add notes. All changes will be seen only by you. Learn more »
launch autoscroll
font size
0
reset
how to read this tab
guitar tuner
edit
Autoscroll
slow
fast
+/-
esc
set tempo
stop
Author
Difficulty
i think its 99% correct:] rate please

e|--5-3-5-1----5-3-5-3-1-----------1-1-----3-3-3-3b--------|
B|----------3------------3-1-1-3-1-----3-1-----------------|
G|---------------------------------------------------------|
D|---------------------------------------------------------|
A|---------------------------------------------------------|
E|---------------------------------------------------------|

e|---5-3-5-1----5-3-5-3-1----1-1-2-3-3-4-5-7-9-10----------|
B|-----------3------------3--------------------------------|
G|---------------------------------------------------------|
D|---------------------------------------------------------|
A|---------------------------------------------------------|
E|---------------------------------------------------------|


            
            
Suggest correction
Creating personal tab
Creating personal tab
You can edit any tab online and save it as your Personal.

You can edit, replace or remove any tab part or add personal notes – all changes will be seen only by you.

Personal tabs can be accessed anytime from any device, even offline.
Learn more »
Give kudos to tab author, rate the tab!
1 2 3 4 5
comments
print report bad tab
3 comments total.
0 reply
xXparamoreroxXx 46 Oct 12, 2008 02:53 PM

i think instead of 5351 its 5251. i dont know it just sounds better to me

+3 reply
madasrabbits06 10 Jun 01, 2009 02:42 PM

should be:

-------------------------------|---------------------------------
-10-9-10-------10-9-10-9-------|---------------------------------
---------10--------------10----|----------10----10-12-12-12------
------------12--------------12-|-10-10-12----12------------------
-------------------------------|---------------------------------
-------------------------------|---------------------------------

-------------------------------|-------------------------------------
-10-9-10-------10-9-10-9-------|-------------8-9-10-10-11-12-13-14-15
---------10--------------10----|-10-10-11-12-------------------------
------------12--------------12-|-------------------------------------
-------------------------------|-------------------------------------
-------------------------------|-------------------------------------

or you can play it 5-4-5-1-3
instead of 5-3-5-1-3

+1 reply
xflost 270 Nov 08, 2009 09:20 AM

masasrabbits06 you should make a tab with that in it...i'd five star that tab

guest
You may want to rate the tab now too:
select rating
Wanna post a correction for this tab? Suggest correction