Oops, an error
Loading. Please wait.

Angel Of Mine intro tab

version 1
version 1

Intro

Whole song

14,100 views 3 this week
4 commentsread comments
1 2 3 4 5
x 7
add to favorites
×
Save as Personal and add changes to this tab that will be seen only by you. Learn more ›
×
You can save this tab as Personal to edit and correct it or add notes. All changes will be seen only by you. Learn more »
launch autoscroll
font size
0
reset
how to read this tab
guitar tuner
edit
Autoscroll
slow
fast
+/-
esc
set tempo
stop
I haven't really noticed any "Angel of Mine" tabs yet, so I thought I would take the
initiative and make one for you guys :3 This is just the intro, just most of the same
chords and patterns just repeat throughout the song, but I'll make it a point to finish 
it up later, promise! -Piers

Tuning: Half Step Down (D# G# C# F# A# D#)

intro
D#:-----------------|-----------------|-----------------|
G#:-----------------|-3---------------|-5---------------|
C#:-------------0---|---0h2p0---------|---4-------------| x2
F#:-0-2-2h4-2-0-----|-----------0-----|--------0--------|
A#:-----------------|---------0-------|------0----------|
D#:-----------------|-----------------|-----------------|

D#:-----------------|-----------------|----3------------|-2---------------|
G#:-7---7---5--3--2-|-3---3---2-------|-0---------------|-----------------|
C#:-----------------|-----------------|-----------------|---0-------0-----|
F#:---0-------------|---0-------------|-------2-0-------|-2---2---2-------|
A#:-------8-7--5--3-|-5-----5-3-------|-1--0------------|-------0-----3---|
D#:-----------------|------------2-3--|-----------------|-----------------|

            
            
Suggest correction
Creating personal tab
Creating personal tab
You can edit any tab online and save it as your Personal.

You can edit, replace or remove any tab part or add personal notes – all changes will be seen only by you.

Personal tabs can be accessed anytime from any device, even offline.
Learn more »
comments
print report bad tab
4 comments total. Showing first comments.
+2 reply
bcgarl01 26 Sep 18, 2012 11:45 PM

Seems to be a solid tab, but the whole things needs to be flipped horizontally. Tabs typically are written/read as such:

E

+1 reply
bcgarl01 26 Sep 18, 2012 11:50 PM

^That's supposed to read (from top to bottom respectively) e B G D A E

+4 reply
jasmineasuncion 20 Feb 14, 2014 08:07 PM

D#:-----------------|-----------------|-----------------|
A#:-----------------|---------0-------|------0----------|
F#:-0-2-2h4-2-0-----|-----------0-----|--------0--------|
C#:-------------0---|---0h2p0---------|---4-------------| x2
G#:-----------------|-3---------------|-5---------------|
D#:-----------------|-----------------|-----------------|

D#:-----------------|------------2-3--|-----------------|-----------------|
A#:-------8-7--5--3-|-5-----5-3-------|-1--0------------|-------0-----3---|
F#:---0-------------|---0-------------|-------2-0-------|-2---2---2-------|
C#:-----------------|-----------------|-----------------|---0-------0-----|
G#:-7---7---5--3--2-|-3---3---2-------|-0---------------|-----------------|
D#:-----------------|-----------------|----3------------|-2---------------|

guest
You may want to rate the tab now too:
select rating
Wanna post a correction for this tab? Suggest correction