Oops, an error
Loading. Please wait.

Mortal Kombat Theme tab

13,905 views 3 this week
3 commentsread comments
1 2 3 4 5
x 5
add to favorites
×
Save as Personal and add changes to this tab that will be seen only by you. Learn more ›
×
You can save this tab as Personal to edit and correct it or add notes. All changes will be seen only by you. Learn more »
launch autoscroll
font size
0
reset
how to read this tab
guitar tuner
edit
Autoscroll
slow
fast
+/-
esc
set tempo
stop
Author
Difficulty
i actually was in school and was messin around in piano class and i actually discovered
to play the song on piano.well i brung my guitar to school and took the notes from the
and translated them into guitar then i played it and it turned out really great.i hate 
brag but i think this is 100% correct.and good news for all you guitar players that lik a
but not too hard song.because these tabs are sure to test your skills.

standrad tuning (EADGBe)

don't let any strings ring

intro

/=slide

E|--------------------------------------------------------------------|--|
B|--------------------------------------------------------------------|--|
G|--------------------------------------------------------------------|--|
D|----------------------2---5---5-2-----------------------------------|--|
A|--0-0-3-0-5-0-7-5-3-3---3---3---------2---3---5-3-----0---3---3-2---|--|
E|----------------------------------3-3---3---3-----1-1---1---1-------|--|

(play twice)

bridge

E|--------------------------------------------------------------------|--|
B|--------------------------------------------------------------------|--|
G|--------------------------------------------------------------------|--|
D|--0-0-0-0---5-0-0-0-0-----0-0-0-0---5-0-0-0-00-00-------------------|--|
A|--0-0-0-0-5-3-0-0-0-0-5-0-0-0-0-0-5-3-0-0-0-00-00-------------------|--|
E|----------3-----------3-0---------3---------------------------------|--|

(play twice)

chorus

E|--------------------------------------------------------------------|--|
B|--------------------------------------------------------------------|--|
G|--------------------------------------------------------------------|--|
D|--07-05-03-05-3/5---------------------------------------------------|--|
A|--05-03-01-03-1/35--------------------------------------------------|--|
E|-----------------3--------------------------------------------------|--|

(play three times)

E|--------------------------------------------------------------------|--|
B|--------------------------------------------------------------------|--|
G|--------------------------------------------------------------------|--|
D|--07-05-------------------------------------------------------------|--|
A|--05-03-55557-7-----------------------------------------------------|--|
E|--------33335-5-----------------------------------------------------|--|

and thats basically the whole song

don't forget to hit the guy next to you and yell
MORTAL KOMBAT!!!!!!!!!!!!!!!!!!!!!!!!!!!!!!!!!!!!!!!!

            
            
Suggest correction
Creating personal tab
Creating personal tab
You can edit any tab online and save it as your Personal.

You can edit, replace or remove any tab part or add personal notes – all changes will be seen only by you.

Personal tabs can be accessed anytime from any device, even offline.
Learn more »
comments
print report bad tab
3 comments total.
0 reply
fanofnumber80 124 Nov 13, 2014 06:30 AM

haha i like this "don't forget to hit the guy next to you and yell
MORTAL KOMBAT!!!!!!!!!!!!!!!!!!!!!!!!!!!!!!!!!!!!!!!!"

0 reply
fanofnumber80 124 Nov 13, 2014 06:34 AM

But dude this is pretty awesome! great job!

0 reply
Nirvana8100 20 May 07, 2017 04:13 PM

How to impress your friends 101

guest
You may want to rate the tab now too:
select rating
Wanna post a correction for this tab? Suggest correction