Oops, an error
Loading. Please wait.
We have an official Mortal Kombat Theme tab made by UG professional guitarists. Check out the tab »
×
16,924 views 9 this week
4 commentsread comments
1 2 3 4 5
x 13
add to favorites
×
Save as Personal and add changes to this tab that will be seen only by you. Learn more ›
×
You can save this tab as Personal to edit and correct it or add notes. All changes will be seen only by you. Learn more »
launch autoscroll
font size
0
reset
how to read this tab
guitar tuner
edit
Autoscroll
slow
fast
+/-
esc
set tempo
stop
Author
Difficulty
Unregistered
intermediate
Alright guys this is my first tab so I hope you enjoy it!

Tuning: Standard (EBGDAE)

[Intro]
E|-------------------------------------------------------|
B|-------------------------------------------------------|
G|-----------------------------------------12------------|
D|--------10----12----14-12----10-10-14-10----10-14-10---|
A|--12-12----12----12------------------------------------|
E|-------------------------------------------------------|

E|-------------------------------------------------------|
B|-------------------------------------------------------|
G|-------------------------------------------------------|
D|--------10----12----12-10--------7---10---10-9---------|
A|--10-10----10----10----------8-8---8----8--------------|
E|-------------------------------------------------------|
Repeat that riff one more time after that.

[Chorus]
E|-------------------------------------------------------|
B|-------------------------------------------------------|
G|------------------5------------------------------------|
D|----7--7--7--7--5-5----7--7--7--7--5-2-----------------|
A|----7--7--7--7--5-3----7--7--7--7--5-2-----------------|
E|----5--5--5--5--3------5--5--5--5--3-0-----------------|

E|-------------------------------------------------------|
B|-------------------------------------------------------|
G|------------------5------------------------------------|
D|----7--7--7--7--5-5----7--7--7--77-77------------------|
A|----7--7--7--7--5-3----7--7--7--77-77------------------|
E|----5--5--5--5--3------5--5--5--55-55------------------|
Repeat all of those chords one more time

E|--------------------------------------------------|
B|--------------------------------------------------|
G|--------------------------------------------------|
D|-------14-----------------------------------------|
A|----12----12-15-12-13-12-15-12h13p12--------------|
E|-----------------------------------15-------------|

E|-------------------------------------------------------|
B|-------------------------------------------------------|
G|-------------------------------------------------------|
D|-------14----------------------------------------------|
A|----12----12-15-12-10-10-12-12-------------------------|
E|-------------------------------------------------------|

Repeat the second riff where it has the 3x symbol. Do it 3x again

That's pretty much the whole song.
Thanks for looking at my first tabs guys and girls. 
Please rate and comment whether you liked it or not.
MK Rocks!

************************************

| h  Hammer-on
| p  Pull-off

************************************

            
            
Suggest correction
Creating personal tab
Creating personal tab
You can edit any tab online and save it as your Personal.

You can edit, replace or remove any tab part or add personal notes – all changes will be seen only by you.

Personal tabs can be accessed anytime from any device, even offline.
Learn more »
comments
print report bad tab
4 comments total. Showing first comments.
0 reply
kbancalari 10 Jun 03, 2011 04:12 PM

Great tab dude

0 reply
Radnoz 51 Jun 08, 2012 04:10 PM

I couldnt stop laughing. Its so awesome!
Congrats man

0 reply
fanofnumber80 124 Nov 13, 2014 07:02 AM

Amazing tab bro, keep up the work!!

guest
Wanna post a correction for this tab? Suggest correction