Oops, an error
Loading. Please wait.

Girl bass

version 1
version 1

Whole song

  • Bass guitar version of synth bass. Tabbed for the ... Show more
  • Here is the song: https://www.youtube.com/watch?v=zmY8mG4_3j4.
1,120 views 15 this week
2 commentsread comments
1 2 3 4 5
3 more votes to show rating
add to favorites
×
Save as Personal and add changes to this tab that will be seen only by you. Learn more ›
×
You can save this tab as Personal to edit and correct it or add notes. All changes will be seen only by you. Learn more »
launch autoscroll
font size
0
reset
guitar tuner
edit
Autoscroll
slow
fast
+/-
esc
set tempo
stop
Girl - The Internet 
Album: Ego Death
Bass Tab
Tabbed By: Mark Aranha 
e-mail: mark.aranha@gmail.com
Tuning: EADG
Note: This is a single synth bass loop over the whole song. 
It sounds like the last note is doubled but that's really just the kick pattern, not the bass.
You can still double the last note if you like.

[Intro]

G|----------------------------------||
D|----------------------------------||
A|----------------------------------||
E|----------------------------------||

[Chorus] 
G|----------------------------------||
D|-3-5-----0-1----1-3---1--0-1---0--||
A|-----------------------------3----||  x4
E|----------------------------------||
"Girl..."

[Verse]
G|----------------------------------||
D|-3-5-----0-1----1-3---1--0-1---0--||
A|-----------------------------3----||  x4
E|----------------------------------||
"Passion..."

[Pre-Chorus] 
G|----------------------------------||
D|-3-5-----0-1----1-3---1--0-1---0--||
A|-----------------------------3----||  x4
E|----------------------------------||
"If I told you that you rock my world..."

[Chorus] 
G|----------------------------------||
D|-3-5-----0-1----1-3---1--0-1---0--||
A|-----------------------------3----||  x4
E|----------------------------------||
"Girl..."

[Verse]
G|----------------------------------||
D|-3-5-----0-1----1-3---1--0-1---0--||
A|-----------------------------3----||  x4
E|----------------------------------||
"Chapters turning..."

[Pre-Chorus] 
G|----------------------------------||
D|-3-5-----0-1----1-3---1--0-1---0--||
A|-----------------------------3----||  x4
E|----------------------------------||
"If I told you that you rock my world..."

[Chorus] 
G|----------------------------------||
D|-3-5-----0-1----1-3---1--0-1---0--||
A|-----------------------------3----||  x8
E|----------------------------------||
"Girl..."

[Interlude]
G|----------------------------------||
D|-3-5-----0-1----1-3---1--0-1---0--||
A|-----------------------------3----||  x8
E|----------------------------------||

[Chorus] 
G|----------------------------------||
D|-3-5-----0-1----1-3---1--0-1---0--||
A|-----------------------------3----||  x8
E|----------------------------------||
"Girl..."

[Outro]
G|----------------------------------||
D|-3-5-----0-1----1-3---1--0-1---0--||
A|-----------------------------3----|| 
E|----------------------------------||

            
            
Suggest correction
Creating personal tab
Creating personal tab
You can edit any tab online and save it as your Personal.

You can edit, replace or remove any tab part or add personal notes – all changes will be seen only by you.

Personal tabs can be accessed anytime from any device, even offline.
Learn more »
Give kudos to tab author, rate the tab!
1 2 3 4 5
comments
print report bad tab
2 comments total.
0 reply
ainsley.wavemagazine 10 Aug 06, 2017 11:19 AM

This seems very far off. Not enough notes for a start. This sounds more accurate:

G|----------------------------------||
D|---5-------------3--1--------------||
A|-3------5-6----1-------3-1-0-------||
E|-----------------------------3----||

0 reply
jamstation 527 Aug 08, 2017 05:36 AM

Fixed. Should be 100% now.

guest
You may want to rate the tab now too:
select rating
Wanna post a correction for this tab? Suggest correction