Oops, an error
Loading. Please wait.

White Noise chords

247 views 9 this week
no commentswrite comment
1 2 3 4 5
2 more votes to show rating
add to favorites
×
Save as Personal and add changes to this tab that will be seen only by you. Learn more ›
×
You can save this tab as Personal to edit and correct it or add notes. All changes will be seen only by you. Learn more »
launch autoscroll
font size
0
reset
transpose
0
reset
display chords
guitar tuner
edit
Autoscroll
slow
fast
+/-
esc
set tempo
stop
Author
Difficulty
Strumming Is this strumming pattern correct? Yes No
whole song 93 bpm
1
&
2
&
3
&
4
&
Listen
[Chords]
A:  xxx655
D:  xxx775
Bm: xxx777
E:  xxx997


Short Intro
e|------------------|
B|------------------|
G|-7--7-7--6-4--4-4-|
D|------------------|
A|------------------|
E|------------------|

[Chorus] 
      A    D       A    D       A    D
White noise  white noise  white noise
Bm             E              A   D
All you are is white noise to me
      A    D       A    D       A    D
White noise  white noise  white noise
Bm             E              A   D
All you are is white noise to me


[Verse 1]
                D
I won't listen, static in the ear
       A                       D
Got my ear drums wishing, they couldn't even hear
A                        D
  You tell me lies but I see right through it
       Bm
You've done a lot of dirty work
         E
But I've been straight through it
      A                     D
White noise! Turn it up, manipulation sound
    A                          D
You got my information but I'm living under ground
   A                                        D
My friends don't want to hear it cause they all wanna level
     Bm                        E
They got a lot of spirit and I know you outta tell ‘em


[Chorus]
      A    D       A    D       A    D
White noise  white noise  white noise
Bm             E              A   D
All you are is white noise to me
      A    D       A    D       A    D
White noise  white noise  white noise
Bm             E              A   D
All you are is white noise to me

[Chorus with Riff 1]
e|---------------------------------|
B|---------------------------------|
G|-7-7-----------------4-4-6-6-7-7-|x3
D|-----4-4-5-5-7-7-5-5-------------|
A|---------------------------------|
E|---------------------------------|


[Verse 2]
               D
I won't speak, talk another static
      A                       D
White noise white noise, your spunks automatic
A                       D
  And I've had it, with your volume
Bm                        E
  I'm in a panic with the music in the room
      A                       D
White Noise Boys bobbin their heads in sync
        A                         D
Get the girls on the dance floor, skankin’ to the beat
      A                               D
We're shouting to the boys, that they call authority
          Bm           E
Now we're interrupting the majority


[Chorus]
      A    D       A    D       A    D
White noise  white noise  white noise
Bm             E              A   D
All you are is white noise to me
      A    D       A    D       A    D
White noise  white noise  white noise
Bm             E              A   D
All you are is white noise to me

[Chorus with Riff 1]
e|---------------------------------|
B|---------------------------------|
G|-7-7-----------------4-4-6-6-7-7-|x3
D|-----4-4-5-5-7-7-5-5-------------|
A|---------------------------------|
E|---------------------------------|


[Solo]
e|-----5--7-9-5--|------5-7--9-10--7----|
B|---5-----------|----7-----------------|
G|-6-------------|--7-------------------|
D|---------------|----------------------|
A|---------------|----------------------|
E|---------------|----------------------|

e|-----5--7-9-5--|------5-7--9-10-12----|-14\---|
B|---5-----------|----7-----------------|-------|
G|-6-------------|--7-------------------|-------|
D|---------------|----------------------|-------|
A|---------------|----------------------|-------|
E|---------------|----------------------|-------|


[Verse 3]
A                    D
  Turn the dial, and listen for a while
      A                         D
We’re taking over frequency for miles and miles
  A                    D
So, turn the dial, and listen for a while
      Bm                        E
We’re taking over frequency for miles and miles


[Chorus]
      A    D       A    D       A    D
White noise  white noise  white noise
Bm             E              A   D
All you are is white noise to me
      A    D       A    D       A    D
White noise  white noise  white noise
Bm             E              A   D
All you are is white noise to me

[Chorus with Riff 1]
e|---------------------------------|
B|---------------------------------|
G|-7-7-----------------4-4-6-6-7-7-|x3
D|-----4-4-5-5-7-7-5-5-------------|
A|---------------------------------|
E|---------------------------------|

[Verse 3]
A                    D
  Turn the dial, and listen for a while
      A                         D
We’re taking over frequency for miles and miles
  A                    D
So, turn the dial, and listen for a while
      Bm                        E
We’re taking over frequency for miles and miles

[Verse 3 with Riff 1]
e|---------------------------------|
B|---------------------------------|
G|-7-7-----------------4-4-6-6-7-7-|x3
D|-----4-4-5-5-7-7-5-5-------------|
A|---------------------------------|
E|---------------------------------|

            
            
Suggest correction
Creating personal tab
Creating personal tab
You can edit any tab online and save it as your Personal.

You can edit, replace or remove any tab part or add personal notes – all changes will be seen only by you.

Personal tabs can be accessed anytime from any device, even offline.
Learn more »
Give kudos to tab author, rate the tab!
1 2 3 4 5
comments
print report bad tab
guest
You may want to rate the tab now too:
select rating
Wanna post a correction for this tab? Suggest correction