Oops, an error
Loading. Please wait.

I Want You Back bass

version 4
version 4

Whole song

Interactive

6,933 views 3 this week
1 commentread comment
1 2 3 4 5
x 3
add to favorites
×
Save as Personal and add changes to this tab that will be seen only by you. Learn more ›
×
You can save this tab as Personal to edit and correct it or add notes. All changes will be seen only by you. Learn more »
launch autoscroll
font size
0
reset
guitar tuner
backing track
0:00
0:00
edit
Autoscroll
slow
fast
+/-
esc
set tempo
stop
Author
Difficulty
I Want You Back – Jackson 5
Tabbed By Pat Hunt
Another variation, feel free to tell me if I got anything wrong, though.

	Verse				                                           (2nd time only)

G|---------------------------------------|----------------------------------|
D|-------6h8-----------------------------|-----6---6------------------------|
A|---7h8-----4-------5-6-7-8---4-----6---|-6h8---8--------------------------|
E|-4-----------6-8-9---------8---4-6---4-|----------------------------------|

	Chorus

G|--------------------------------------------------------------------------|
D|-6-6-5-5---------------------------------------------6---6----------------|
A|---------8-8-6-------------6---6-7-8---4-----6---6h8---8------------------|
E|---------------9-10-9-8-66---4-------8---4-6---4--------------------------|
	Verse (2x)

G|--------------------------------------------------------------------------|
D|-------6h8----------------------------------6---6-------------------------|
A|---7h8-----4-------5-6-7-8---4-----6---6h8----8---------------------------|
E|-4-----------6-8-9---------8---4-6---4------------------------------------|
Chorus	                                        (1st time)        (2nd time)(4x)
G|-------------------------------------------|--------------|---------------|
D|-6-6-5-5-----------------------------------|-------6---6--|---------------|
A|---------8-8-6--------6---6-7-8---44-----6-|---6h8---8----|---------------|
E|---------------9-8-66---4-------8----4-6---|-4------------|-4-4-4-4-------|

Verse (2x, same as line 3. So shoot me, i got lazy)

	Chorus
G|--------------------------------------------------------------------------|
D|-6-6-5-5------------11----------------------------------6---6-------------|
A|---------8-8-6---11-----------6---6-7-8---4-----6---6h8---8---------------|
E|---------------9-------8-6-66---4-------8---4-6---4-----------------------|

G|--------------------------------------------------------------------------|
D|-6-6-5-5------------------------------------------------------------------|
A|---------8-8-6--------6---6-7-8---4---------------------------------------|
E|---------------9-8-66---4-------8---4-------------------------------------|
	Bridge
  (2x)        (4x)
G|-------------|-----10-----------------------------------------------------|
D|-3-6-----3---|---6--------10------------1---------------------------------|
A|-----3-4-----|-8--------6------8-11---3-----------------------------------|
E|-----------4-|--------8------9------4-------------------------------------|
	Chorus (2x)
							                 (2x)Fade Out…
G|-------------------------------------------|---------|---------|
D|-6-6-5-5-----------------------------------|---------|-----6---|
A|---------8-8-6--------6---6-7-8---44-----6-|---------|-6-8---8-|
E|---------------9-8-66---4-------8----4-6---|-4-4-4-4-|---------|


| /  slide up
| \  slide down
| h  hammer-on
| p  pull-off
| ~  vibrato
| +  harmonic
| x  Mute note
===============================================================================

            
            
Suggest correction
Creating personal tab
Creating personal tab
You can edit any tab online and save it as your Personal.

You can edit, replace or remove any tab part or add personal notes – all changes will be seen only by you.

Personal tabs can be accessed anytime from any device, even offline.
Learn more »
Give kudos to tab author, rate the tab!
1 2 3 4 5
comments
print report bad tab
1 comment total.
0 reply
chiggynuggets 31 Sep 09, 2009 03:04 PM

That bridge riff is pretty rough, especially that jump down to the A flat, so i reworked the second part of the bridge:

G|-----5--------------------|
D|-3-6-------5---3-6-----1--|
A|-------3-6---4-------3----|
E|-------------------4------|

guest
You may want to rate the tab now too:
select rating
Wanna post a correction for this tab? Suggest correction