Oops, an error
Loading. Please wait.

Strange Town bass

version 2
version 2

Whole song

by The Jam
479 views 1 this week
no commentswrite comment
1 2 3 4 5
3 more votes to show rating
add to favorites
×
Save as Personal and add changes to this tab that will be seen only by you. Learn more ›
×
You can save this tab as Personal to edit and correct it or add notes. All changes will be seen only by you. Learn more »
launch autoscroll
font size
0
reset
guitar tuner
edit
Autoscroll
slow
fast
+/-
esc
set tempo
stop
THE JAM - STRANGE TOWN


THIS SONG DEMONSTRATES BRUCE'S IMMENSE SPEED UP AND DOWN THE NECK,
PARTICULARLY THE CHORUS. VERY TRICKY TO GET RIGHT!

ANYWAY, ONE OF THE JAM'S FINEST EFFORTS. ENJOY.

G--------------------------------------|
D--------------------------------------|
A--------------------------------------|
E--3---33---33333---3--5-7-5-3--5-7-5--|

"Found myself in a strange town..."
G------------------------------------|
D------------------------------------|
A--3--3--23------------------------2-|
E-------2--5---3530-1--1-0103--3-33--| X3

G-------------------------------------|
D-------------------------------------|
A--3--3--23---------------------------|
E-------2--5---3530-1--1-0103--3--530-| X1

"They worry themselves about feeling low..."
G----------------------------------------------------|
D-----3-------5-3h5---3-------5-3h5---3-------5-3h5--|
A--------3---5-5---------3---5-5---------3---5-5-----|
E--1-------3-------1-------3-------1-------3---------|

G---------------------------------|
D---------------------------------|
A---------------------------------|
E--1--1---1--1---3-5-7-53-35-7-5--|

"You gotta move in a straight line..."
G-----------------------------------|
D-----------------------------------|
A--3--3--23-----------------------2-|
E-------2--5--3530-1--1-0103--3-33--| X3

G-------------------------------------|
D-------------------------------------|
A--3--3--23---------------------------|
E-------2--5--3530-1--1-0103--3--530--| X1

"Rush my money to the record shops..."
G----------------------------------------------------|
D-----3-------5-3h5---3-------5-3h5---3-------5-3h5--|
A--------3---5-5---------3---5-5---------3---5-5-----|
E--1-------3-------1-------3-------1-------3---------|

G---------------------------------|
D---------------------------------|
A---------------------------------|
E--1--1---1--1---3-5-7-53-35-7-5--|

G------------------------------------|
D------------------------------------|
A--3-3-3-3------------------------2--|
E---------55-5-5-501-1-1-103-3-3-3---|


G-----------------------------------|
D-----------------------------------|
A--3-3-3-3--------------------------|
E---------55-5-5-501-1-1-103-3-3-3--|

"I'm finished with clubs where the music's loud..."
G-----7/997-------------7/997------------------------|
D----------9---5/775---------9---5/775---------------|
A--5----------------75----------------77--7---7--7---|
E-----------3-----------------3----------------------|

"I look in the mirror but I can't be seen..."
G-----7/997-------------7/997------------------------|
D----------9---5/775---------9---5/775---------------|
A--5----------------75----------------77--7----------|
E-----------3-----------------3---------------5--5---|

G---------------------|
D---------------------|
A---------------------|
E--3--5-7-5-3-35-7-5--|

G------------------------------------|
D------------------------------------|
A------------------------------------|
E--88888888777777775555555033333330--|

G-----------------------------------------------|
D-----------------------------------------------|
A------10-1010----10-1010----7-77---------------| all these notes are tens,
E--8888--8----7777--7----5555-5--3333/10101010--| not ones and zeros

G------------------------------------------------|
D------------------------------------------------|
A------10-1010----9-9-----777--------------------|
E--8888--8----7777-7--5555---5-3535353535353535--|

"Found myself in a strange town..."
G-----------------------------------|
D-----------------------------------|
A--3--3--23-----------------------2-|
E-------2--5--3530-1--1-0103--3-33--| X3

G-------------------------------------|
D-------------------------------------|
A--3--3--23---------------------------|
E-------2--5--3530-1--1-0103--3--5-0--| X1

"Worry themselves about feeling low..."
G----------------------------------------------------|
D-----3-------5-3h5---3-------5-3h5---3-------5-3h5--|
A--------3---5-5---------3---5-5---------3---5-5-----|
E--1-------3-------1-------3-------1-------3---------|

G---------------------------------|
D---------------------------------|
A---------------------------------|
E--1--1---1--1---3-5-7-53-35-7-5--|

G--------------------------|
D--------------------------|
A--------------------------|
E--88888---88888---88888---|

"Straaaaaange toooooooown..."
G----------------------------------------------------|
D---10-10-10-10-10-10-10-10-10-10-10-10-10-10-10-10--|
A----------------------------------------------------|
E--8--8--8--8--8--8--8--8--8--8--8--8--8--8--8--8----| do this until (3.36)

G------------------------------------|
D------------------------------------|
A------------------------------------|
E--88888---88888---88888---88888>>>--| End on this.

            
            
Suggest correction
Creating personal tab
Creating personal tab
You can edit any tab online and save it as your Personal.

You can edit, replace or remove any tab part or add personal notes – all changes will be seen only by you.

Personal tabs can be accessed anytime from any device, even offline.
Learn more »
Give kudos to tab author, rate the tab!
1 2 3 4 5
comments
print report bad tab
guest
You may want to rate the tab now too:
select rating
Wanna post a correction for this tab? Suggest correction