Oops, an error
Loading. Please wait.

Town Called Malice bass

version 1
version 1

Whole song

Interactive

by The Jam
69,438 views 72 this week
6 commentsread comments
1 2 3 4 5
x 29
add to favorites
×
Save as Personal and add changes to this tab that will be seen only by you. Learn more ›
×
You can save this tab as Personal to edit and correct it or add notes. All changes will be seen only by you. Learn more »
launch autoscroll
font size
0
reset
guitar tuner
edit
Autoscroll
slow
fast
+/-
esc
set tempo
stop
Author
Unregistered
"Town Called Malice" by The Jam from THE GIFT
T+M: Weller
Transcrisption by Lee McManus and David Tucker
Suggestions and corrections are always welcome


[Intro and Chorus]

                                               4x
G---||-----------------|--------------------|
D---||*----------------|-------------------*|
A---||*--5--5--5p2-----|--5--5--5p2-----2--*|
E---||--------------5--|-------------5------|


[Verse] (better stop dreaming...)

G-------------------|-----4-5-4----2---|------------------|
D------4-5-4---2----|------------------|-----4-5-4----2---|
A-------------------|------------------|------------------|
E---2---------------|--0---------------|--2---------------|

G------5-4--2-4-|
D---------------|
A---------------|
E---0-----------|

(and stop apologizing for the things...)
G-------------------------------------------------------------|
D-------------------------------------------------------------|
A-------------------------------------------------------------|
E---3--3--3-----3--3--3-----3--3--3---2--2--2---2--2--2---2-2-|

G-------------------------------------------------|
D-------------------------------------------------|
A---------------------------------------0--4--5---|
E---2-----5--5--5-----5--5--5-----5--5------------|


Middle bit (a whole streets belief...)

G---|-----------|---------------------------------|
D---|-----------|---------------------------------|
A---|--4\2/4\2--|---------------------------------|
E---|-----------|---------------------------------|



************************************

| p  Pull-off
| /  Slide up
| \  Slide down

************************************

            
            
Suggest correction
Creating personal tab
Creating personal tab
You can edit any tab online and save it as your Personal.

You can edit, replace or remove any tab part or add personal notes – all changes will be seen only by you.

Personal tabs can be accessed anytime from any device, even offline.
Learn more »
comments
print report bad tab
6 comments total. Showing first comments.
0 reply
zackrulez 37 Mar 20, 2006 10:11 AM

Class tab nice one!

+1 reply
Lil_C 30 Jun 28, 2006 12:41 PM

LEGEND! i need this 4 a bass off!

0 reply
-Tina- 40 Jan 09, 2008 06:46 AM

Nice one!!!, this song will never become too old to play!!

guest
Wanna post a correction for this tab? Suggest correction