Oops, an error
Loading. Please wait.

Sometimes Always tab

version 1
version 1

Whole song

19,765 views 42 this week
3 commentsread comments
1 2 3 4 5
x 9
add to favorites
×
Save as Personal and add changes to this tab that will be seen only by you. Learn more ›
×
You can save this tab as Personal to edit and correct it or add notes. All changes will be seen only by you. Learn more »
launch autoscroll
font size
0
reset
how to read this tab
guitar tuner
edit
Autoscroll
slow
fast
+/-
esc
set tempo
stop
#----------------------------------PLEASE NOTE---------------------------------#
#This file is the author's own work and represents their interpretation of the #
#song. You may only use this file for private study, scholarship, or research. #
#------------------------------------------------------------------------------##
#

#----------------------------------PLEASE NOTE---------------------------------#
#This file is the author's own work and represents their interpretation of the #
#song. You may only use this file for private study, scholarship, or research. #
#------------------------------------------------------------------------------#

Date: Thu, 28 Nov 1996 12:05:54 EST
From: Brian F Mojica 

Sometimes Always
from the album "Stoned and Dethroned"
tabbed by Brian Mojica 
lyrics courtesy of Brian Mojica 

h = hammer on
p = pull off
/ = slide up
\ = slide down
~ = vibrato
^ = bend (half-, full-, two-steps etc. specified)
rb=release bend

capo IV

A    D

A           D
 I gave you all I had
A            D
 I gave you good and bad
A            D
 I gave but you just threw it back

A              D
 I won^?t get on my knees
A               D
 Don^?t make me do that please
A            D               A    D
 I^?ve been away but now I^?m back

A              D
 Don^?t be too sure of that
A                D
 What makes you sure of that?
A           D                  A    D
 You went away and can^?t come back

A             D
 I walked away from you
A              D
 I hurt you through and through
A            D                 A     D
 Oh, honey, give me one more chance

solo 1
      A                       D                   A
|---------------------------|-------------------|-------------------------|
|---------------------------|-------------------|-------------------------|
|---------------------------|-------------------|-------------------------|
|-(2)h4---2---2-------------|-------------------|-------2---2-------------|
|-----------------2^f-2rb---|-------2^f-2rb-----|-2h4-----------2^f-2rb---|
|-------------------------5-|-2---2---------5-2-|-----------------------5-|

  D                   A                     D                     A
|-------------------|---------------------|---------------------|---------------|
|-------------------|---------------------|---------------------|---------------|
|-------------------|---------------------|---------------------|---------------|
|-------------------|---------------------|---------------------|---2-----2---2-|
|-------2^h-2rb-----|-2^f-2rb-------2---2-|-2^f-2rb-------2---2-|-4-----4-------|
|-2---2---------5-2-|---------5-2-5---5---|---------5-2-5---5---|---------------|

  D                     A  (oh, you^?re a lucky son...)
|---------------------|---------------|
|---------------------|---------------|
|---2---4-4^f-4rb-2---|-2-------------|
|-4-----------------4-|---------------|
|---------------------|---------------|
|---------------------|---------------|


A              D
 Oh, you^?re a lucky son
A          D
 Lucky son of a gun
A           D
 You went away
A           D
 You went away
A           D                  D   G
 You went away but now you^?re back

solo 2
      A                       D                   A
|---------------------------|-------------------|---------------------|
|---------------------------|-------------------|---------------------|
|---------------------------|-------------------|---------------------|
|-(2)h4---2---2-------------|-------------------|-----2---2-----------|
|-----------------2^f-2rb---|-------2^f-2rb---2-|-4---------2^f-2rb---|
|-------------------------5-|-2---2---------5---|-------------------5-|

  D                   A                     D                     A
|-------------------|---------------------|---------------------|-----------------|
|-------------------|---------------------|---------------------|-----------------|
|-----------------4-|-4^f-4rb-2---2-4-2-4-|-4^f-4rb-2---2-4-2---|-----------------|
|-------------------|-----------4---------|-----------4---------|---2-----2---2-4-|
|-------2^f-2rb-----|---------------------|-------------------2-|-4-----4---------|
|-2---2---------5---|---------------------|---------------------|-----------------|

  D                 A  (I got down...)
|-----------------|-------------------|
|-----------------|-------------------|
|-2---4^f-4rb-2---|-2-----------------|
|---------------4-|-------------------|
|-----------------|-------------------|
|-----------------|-------------------|


A           D
 I got down on my knees
A            D
 And then I begged you please
A           D                 A
 I always knew you^?d take me back

            
            
Suggest correction
Creating personal tab
Creating personal tab
You can edit any tab online and save it as your Personal.

You can edit, replace or remove any tab part or add personal notes – all changes will be seen only by you.

Personal tabs can be accessed anytime from any device, even offline.
Learn more »
comments
print report bad tab
3 comments total.
+1 reply
open mikey 72 Jan 07, 2007 07:47 AM

i find this song sounds a lot better if you play
x x 0 2 3 2

x x 0 0 3 0

0 reply
Lentil 10 Oct 06, 2009 11:32 AM

what do you mean by f?

-1 reply
cassiobertell 10 Apr 28, 2014 10:55 AM, edited at 02:59 pm

Capo on 4th fret? psss!!

play no capo, as open mikey put, play like that, and the solo is one string down,

example:

solo 1
A D A
|---------------------------|-------------------|-------------------------|
|---------------------------|-------------------|-------------------------|
|----------------------------------|------------------------|-----------------------------|
|-(2)h4---2---2----------------|------------------------|-------2---2----------------|
|----------------------2^f-2rb---|---------2^f-2rb-----|-2h4-----------2^f-2rb---|
|-------------------------------5-|-2---2-----------5-2-|---------------------------5-|
|----------------------------------|------------------------|------------------------------I

guest
Wanna post a correction for this tab? Suggest correction