Oops, an error
Loading. Please wait.

Jenny Was A Friend Of Mine tab

version 3
version 3
28,112 views 57 this week
6 commentsread comments
1 2 3 4 5
x 12
add to favorites
×
Save as Personal and add changes to this tab that will be seen only by you. Learn more ›
×
You can save this tab as Personal to edit and correct it or add notes. All changes will be seen only by you. Learn more »
launch autoscroll
font size
0
reset
how to read this tab
guitar tuner
edit
Autoscroll
slow
fast
+/-
esc
set tempo
stop
Tune a 1/2 step down (flat tuning, EbAbDbGbbbEb)

[Intro]
(helicopter and synth noise plays then guitar comes in)
    Em
Eb|-0-0-0-0-0-0-0-0-0-0-0-0-0-0-0-0-|
Bb|-8-8-8-8-8-8-8-8-8-8-8-8-8-8-8-8-|
Gb|-9-9-9-9-9-9-9-9-9-9-9-9-9-9-9-9-| (4x)
Db|-0-0-0-0-0-0-0-0-0-0-0-0-0-0-0-0-|
Ab|-7-7-7-7-7-7-7-7-7-7-7-7-7-7-7-7-|
Eb|-0-0-0-0-0-0-0-0-0-0-0-0-0-0-0-0-|

(bass comes in, then you play)
    Em                               D
Eb|-0-0-0-0-0-0-0-0-0-0-0-0-0-0-0-0-|-0-0-0-0-0-0-0-0-0-0-0-0-0-0-0-0-|
Bb|-8-8-8-8-8-8-8-8-8-8-8-8-8-8-8-8-|-8-8-8-8-8-8-8-8-8-8-8-8-8-8-8-8-|
Gb|-9-9-9-9-9-9-9-9-9-9-9-9-9-9-9-9-|-7-7-7-7-7-7-7-7-7-7-7-7h9-9-9-9-|
Db|-0-0-0-0-0-0-0-0-0-0-0-0-0-0-0-0-|-0-0-0-0-0-0-0-0-0-0-0-0-0-0-0-0-|
Ab|-7-7-7-7-7-7-7-7-7-7-7-7-7-7-7-7-|-x-x-x-x-x-x-x-x-x-x-x-x-x-x-x-x-|
Eb|-0-0-0-0-0-0-0-0-0-0-0-0-0-0-0-0-|-x-x-x-x-x-x-x-x-x-x-x-x-x-x-x-x-|

    C
Eb|-x-x-x-x-x-x-x-x-x-x-x-x-x-x-x-x-|-x-x-x-x-x-x-x-x-x-x-x-x-x-x-x-x-|
Bb|-8-8-8-8-8-8-8-8-8-8-8-8-8-8-8-8-|-8-8-8-8-8-8-8-8-8-8-8-8-8-8-8-8-|
Gb|-9-9-9-9-9-9-9-9-9-9-9-9-9-9-9-9-|-9-9-9-9-9-9-9-9-9-9-9-9-9-9-9-9-| (2x) (Em, D, C)
Db|-0-0-0-0-0-0-0-0-0-0-0-0-0-0-0-0-|-0-0-0-0-0-0-0-0-0-0-0-0-0-0-0-0-|
Ab|-7-7-7-7-7-7-7-7-7-7-7-7-7-7-7-7-|-7-7-7-7-7-7-7-7-7-7-7-7-7-7-7-7-|
Eb|-8-8-8-8-8-8-8-8-8-8-8-8-8-8-8-8-|-8-8-8-8-8-8-8-8-8-8-8-8-8-8-8-8-|

[Verse 1]
                                                C
We took a walk that night, but it wasn't the same
Em                    D                         C
We had a fight on the promenade out in the rain
Em                     D                        C
She said she loved me, but she had somewhere to go
Em                          D
She couldn't scream while I held I close
    C
I swore I'd never let her go

[Chorus 1]
Eb|------------------------------------------------------|
Bb|--------10----------10----------10----12----10--------|
Gb|-12-----------12----------12--------------------------|  (2x)
Db|----12-----12----12----12----12----12----12----12-----|
Ab|------------------------------------------------------|
Eb|------------------------------------------------------|

Tell me what you want to know, ah come on ah come on ah come on

Eb|------------------------------------------------------|
Bb|--------10----------10----------10----12----13--------|
Gb|-12-----------12----------12--------------------------|
Db|----12-----12----12----12----12----12----12----12-----|
Ab|------------------------------------------------------|
Eb|------------------------------------------------------|

There ain't no motive for this crime
     G
Eb|--15-15-15-15--15-15-15-15--15-15-15-15--15-15-15-15--|
Bb|--15-15-15-15--15-15-15-15--15-15-15-15--15-15-15-15--|
Gb|--16-16-16-16--16-16-16-16--16-16-16-16--16-16-16-16--| (2x)
Db|--17-17-17-17--17-17-17-17--17-17-17-17--17-17-17-17--|
Ab|------------------------------------------------------|
Eb|------------------------------------------------------|

'cause Jenny was a friend of mine, so come on, oh come on, oh come on, whooaaooo

    Em                                D
Eb|-0-0-0-0-0-0-0-0-0-0-0-0-0-0-0-0-|-0-0-0-0-0-0-0-0-0-0-0-0-0-0-0-0-|
Bb|-8-8-8-8-8-8-8-8-8-8-8-8-8-8-8-8-|-8-8-8-8-8-8-8-8-8-8-8-8-8-8-8-8-|
Gb|-9-9-9-9-9-9-9-9-9-9-9-9-9-9-9-9-|-7-7-7-7-7-7-7-7-7-7-7-7h9-9-9-9-|
Db|-0-0-0-0-0-0-0-0-0-0-0-0-0-0-0-0-|-0-0-0-0-0-0-0-0-0-0-0-0-0-0-0-0-|
Ab|-7-7-7-7-7-7-7-7-7-7-7-7-7-7-7-7-|-x-x-x-x-x-x-x-x-x-x-x-x-x-x-x-x-|
Eb|-0-0-0-0-0-0-0-0-0-0-0-0-0-0-0-0-|-x-x-x-x-x-x-x-x-x-x-x-x-x-x-x-x-|

    C
Eb|-x-x-x-x-x-x-x-x-x-x-x-x-x-x-x-x-|-x-x-x-x-x-x-x-x-x-x-x-x-x-x-x-x-|
Bb|-8-8-8-8-8-8-8-8-8-8-8-8-8-8-8-8-|-8-8-8-8-8-8-8-8-8-8-8-8-8-8-8-8-|
Gb|-9-9-9-9-9-9-9-9-9-9-9-9-9-9-9-9-|-9-9-9-9-9-9-9-9-9-9-9-9-9-9-9-9-| (2x) (Em, D, C)
Db|-0-0-0-0-0-0-0-0-0-0-0-0-0-0-0-0-|-0-0-0-0-0-0-0-0-0-0-0-0-0-0-0-0-|
Ab|-7-7-7-7-7-7-7-7-7-7-7-7-7-7-7-7-|-7-7-7-7-7-7-7-7-7-7-7-7-7-7-7-7-|
Eb|-8-8-8-8-8-8-8-8-8-8-8-8-8-8-8-8-|-8-8-8-8-8-8-8-8-8-8-8-8-8-8-8-8-|

[Verse 2]
                                                    C
I know my rights, I've been here all day and it's time
Em                D                     C
For me to go, so let me know if it's alright
Em                      D                       C
I just can't take this, I swear I told you the truth
Em                          D
She couldn't scream while I held I close
    C
I swore I'd never let her go

[Chorus 2]
Eb|------------------------------------------------------|
Bb|--------10----------10----------10----12----10--------|
Gb|-12-----------12----------12--------------------------|  (2x)
Db|----12-----12----12----12----12----12----12----12-----|
Ab|------------------------------------------------------|
Eb|------------------------------------------------------|

Tell me what you want to know, ah come on ah come on ah come on

Eb|------------------------------------------------------|
Bb|--------10----------10----------10----12----13--------|
Gb|-12-----------12----------12--------------------------|
Db|----12-----12----12----12----12----12----12----12-----|
Ab|------------------------------------------------------|
Eb|------------------------------------------------------|

And then you whisper in my ear
     G
Eb|--15-15-15-15--15-15-15-15--15-15-15-15--15-15-15-15--|
Bb|--15-15-15-15--15-15-15-15--15-15-15-15--15-15-15-15--|
Gb|--16-16-16-16--16-16-16-16--16-16-16-16--16-16-16-16--|  (2x)
Db|--17-17-17-17--17-17-17-17--17-17-17-17--17-17-17-17--|
Ab|------------------------------------------------------|
Eb|------------------------------------------------------|

I know what you're doing here, so come on, oh come on, oh come on

Eb|------------------------------------------------------|
Bb|--------10----------10----------10----12----13--------|
Gb|-12-----------12----------12--------------------------|
Db|----12-----12----12----12----12----12----12----12-----|
Ab|------------------------------------------------------|
Eb|------------------------------------------------------|

There ain't no motive for this crime
     G
Eb|--15-15-15-15--15-15-15-15--15-15-15-15--15-15-15-15--|
Bb|--15-15-15-15--15-15-15-15--15-15-15-15--15-15-15-15--|
Gb|--16-16-16-16--16-16-16-16--16-16-16-16--16-16-16-16--|  (2x)
Db|--17-17-17-17--17-17-17-17--17-17-17-17--17-17-17-17--|
Ab|------------------------------------------------------|
Eb|------------------------------------------------------|

'cause Jenny was a friend of mine, oh come on, oh come on, oh come on, whooaaooo

[Outro]
    Em
Eb|-0-0-0-0-0-0-0-0-0-0-0-0-0-0-0-0-|
Bb|-8-8-8-8-8-8-8-8-8-8-8-8-8-8-8-8-|
Gb|-9-9-9-9-9-9-9-9-9-9-9-9-9-9-9-9-|(8x)
Db|-0-0-0-0-0-0-0-0-0-0-0-0-0-0-0-0-|
Ab|-7-7-7-7-7-7-7-7-7-7-7-7-7-7-7-7-|
Eb|-0-0-0-0-0-0-0-0-0-0-0-0-0-0-0-0-|

    Em                               D
Eb|-0-0-0-0-0-0-0-0-0-0-0-0-0-0-0-0-|-0-0-0-0-0-0-0-0-0-0-0-0-0-0-0-0-|
Bb|-8-8-8-8-8-8-8-8-8-8-8-8-8-8-8-8-|-8-8-8-8-8-8-8-8-8-8-8-8-8-8-8-8-|
Gb|-9-9-9-9-9-9-9-9-9-9-9-9-9-9-9-9-|-7-7-7-7-7-7-7-7-7-7-7-7h9-9-9-9-|
Db|-0-0-0-0-0-0-0-0-0-0-0-0-0-0-0-0-|-0-0-0-0-0-0-0-0-0-0-0-0-0-0-0-0-|
Ab|-7-7-7-7-7-7-7-7-7-7-7-7-7-7-7-7-|-x-x-x-x-x-x-x-x-x-x-x-x-x-x-x-x-|
Eb|-0-0-0-0-0-0-0-0-0-0-0-0-0-0-0-0-|-x-x-x-x-x-x-x-x-x-x-x-x-x-x-x-x-|

    C
Eb|-x-x-x-x-x-x-x-x-x-x-x-x-x-x-x-x-|-x-x-x-x-x-x-x-x-x-x-x-x-x-x-x-x-|
Bb|-8-8-8-8-8-8-8-8-8-8-8-8-8-8-8-8-|-8-8-8-8-8-8-8-8-8-8-8-8-8-8-8-8-|
Gb|-9-9-9-9-9-9-9-9-9-9-9-9-9-9-9-9-|-9-9-9-9-9-9-9-9-9-9-9-9-9-9-9-9-| (4x) (Em, D, C)
Db|-0-0-0-0-0-0-0-0-0-0-0-0-0-0-0-0-|-0-0-0-0-0-0-0-0-0-0-0-0-0-0-0-0-|
Ab|-7-7-7-7-7-7-7-7-7-7-7-7-7-7-7-7-|-7-7-7-7-7-7-7-7-7-7-7-7-7-7-7-7-|
Eb|-8-8-8-8-8-8-8-8-8-8-8-8-8-8-8-8-|-8-8-8-8-8-8-8-8-8-8-8-8-8-8-8-8-|

[Ending]
Em


************************************

| b  Bend
| h  Hammer-on
| x  Dead note

************************************

            
            
Suggest correction
Creating personal tab
Creating personal tab
You can edit any tab online and save it as your Personal.

You can edit, replace or remove any tab part or add personal notes – all changes will be seen only by you.

Personal tabs can be accessed anytime from any device, even offline.
Learn more »
comments
print report bad tab
6 comments total. Showing first comments. show 2 bad comments
+3 reply
Jonesytab13 114 Nov 17, 2010 09:57 AM

you two havent got a clue, this is bang on.

guest
You may want to rate the tab now too:
select rating
Wanna post a correction for this tab? Suggest correction