Oops, an error
Loading. Please wait.

Midnight Show tab

version 2
version 2

Whole song

Interactive

7,943 views 3 this week
1 commentread comment
1 2 3 4 5
x 3
add to favorites
×
Save as Personal and add changes to this tab that will be seen only by you. Learn more ›
×
You can save this tab as Personal to edit and correct it or add notes. All changes will be seen only by you. Learn more »
launch autoscroll
font size
0
reset
how to read this tab
guitar tuner
edit
Autoscroll
slow
fast
+/-
esc
set tempo
stop
Author
-------------------------------------------------------------------------------
                           Midnight Show - The Killers
-------------------------------------------------------------------------------
Tabbed by: TheTroy
Tuning: Half Step Down

Intro
e|---------------------------------------------------------------------------|
B|-12-12-12-12-12----------12-12-12-12-12-13-13-13---------------------------|
G|----------------12-12-12---------------------------------------------------|
D|---------------------------------------------------------------------------|
A|---------------------------------------------------------------------------|
E|---------------------------------------------------------------------------|

Intro chords
e|---------------------------------------------------------------------------|
B|---------------------------------------------------------------------------|
G|---------------------------------------------------------------------------|
D|-9-9-9-9-9-9-9-9-9-9-9-9-9-9-9-9-------------------------------------------|
A|-7-7-7-7-7-7-7-7-7-7-7-7-7-7-7-7-9-9-9-9-9-9-9-9-9-9-9-9-9-9-9-9-----------|
E|---------------------------------7-7-7-7-7-7-7-7-7-7-7-7-7-7-7-7-----------|

e|---------------------------------------------------------------------------|
B|---------------------------------------------------------------------------|
G|---------------------------------------------------------------------------|
D|-------------------------------------------------7-7-7-7-7-7-7-7-----------|
A|-7-7-7-7-7-7-7-7-7-7-7-7-7-7-7-7-5-5-5-5-5-5-5-5-5-5-5-5-5-5-5-5-----------|
E|-5-5-5-5-5-5-5-5-5-5-5-5-5-5-5-5-3-3-3-3-3-3-3-3---------------------------|

Verse - use mutes throughout
e|----------------------15-15-15-14-15-14------------------------------------|
B|-12-12-xxxx-12-12-xx--12-12-12-12-12-12------------------------------------|
G|-12-12-xxxx-12-12-xx--12-12-12-12-12-12------------------------------------|
D|-14-14-xxxx-14-14-xx--14-14-14-14-14-14------------------------------------|
A|---------------------------------------------------------------------------|
E|---------------------------------------------------------------------------|

Pre-chorus
e|----------------------------------------7-------|--------------------------|
B|------------------------------------------8-7-8~|-end of pre chorus-------|
G|--------------------------------------9---------|--------------------------|
D|-5-5-5-5-5-5-5-5-4-4-4-4-4-4-4-4-2~-------------|-7-7-7-7-7-7-7-7-7--------|
A|-3-3-3-3-3-3-3-3-2-2-2-2-2-2-2-2-2~-------------|-5-5-5-5-5-5-5-5-5--------|
E|---------------------------------0~-------------|--------------------------|

Chorus - is the intro

play verse

play pre chorus

play chorus

Solo
e|------------------------------7--------------------------------------------|
B|-8---7--------8---7---------5---8-7-8--------------------------------------|
G|---9---7-9\4----9---9-7\2-4-----------7------------------------------------|
D|----------------------------------------9-8-7------------------------------|
A|----------------------------------------------10-7~------------------------|
E|---------------------------------------------------------------------------|

Play pre chorus

Play chorus

Finish


| /  slide up
| \  slide down
| h  hammer-on
| p  pull-off
| ~  vibrato
| +  harmonic
| x  Mute note
===============================================================================

            
            
Suggest correction
Creating personal tab
Creating personal tab
You can edit any tab online and save it as your Personal.

You can edit, replace or remove any tab part or add personal notes – all changes will be seen only by you.

Personal tabs can be accessed anytime from any device, even offline.
Learn more »
Give kudos to tab author, rate the tab!
1 2 3 4 5
comments
print report bad tab
1 comment total.
0 reply
splngb 31 Apr 07, 2014 09:07 AM

I think this is a half step sharp. Should either be down a fret or tuned down a half step. Looks good otherwise!

guest
You may want to rate the tab now too:
select rating
Wanna post a correction for this tab? Suggest correction