Oops, an error
Loading. Please wait.
3,985 views 72 this week
no commentswrite comment
1 2 3 4 5
x 5
add to favorites
×
Save as Personal and add changes to this tab that will be seen only by you. Learn more ›
×
You can save this tab as Personal to edit and correct it or add notes. All changes will be seen only by you. Learn more »
launch autoscroll
font size
0
reset
how to read this tab
guitar tuner
backing track
0:00
0:00
edit
Autoscroll
slow
fast
+/-
esc
set tempo
stop
Author
Difficulty
intermediate
E|--------------0-----------------------0-----------|
B|--------3--------3-----3--------3--------3-----3--|
G|-----2-----2--------2--------2-----2--------2-----|
D|--0-----------------------------------------------|
A|--------------------------4-----------------------|
E|--------------------------------------------------|

E|--------------0--------------------0--------|
B|--------3--------3-----------3--------3-----|
G|-----2-----2--------2-----2-----2--------2--|
D|--------------------------------------------|
A|--------------------------------------------|
E|--3--------------------3--------------------|

[Verse]
Coming out of my cage
And I've been doing just fine
Gotta gotta be down
Because I want it all
It started out with a kiss
How did it end up like this
It was only a kiss, it was only a kiss
How did it end up like this
It was only a kiss, it was only a kiss
Now I'm falling asleep
And she's calling a cab
While he's having a smoke
And she's taking a drag 

(play chords below for "Now they're going to bed (all down strokes))
E|--0-------------------0-----------------0-------------0-|
B|--3-------------------3-----------------3-------------3-|
G|--2-------------------2-----------------2-------------2-|
D|--0-----------------------------------------------------|
A|----------------------4---------------------------------|
E|----------------------------------------3-------------3-|

    Dsus2              Dmaj9             G6sus2        G6sus2                                          
Now they're going to bed
And my stomach is sick
And it's all in my head (all strumming DDDDDDDD

[Pre-Chorus]
(Strumming pattern- DDUUDU)
                       Bm
But she's touching his chest
                       A
Now, he takes off her dress
                 G         G
Now, letting me go
Bm                    A   
I just can't look its killing me
 G                 G 
And taking  control

[Chorus] 
(Strumming chords from intro) 
(strum DDUUDU)
Dsus4       Dmaj9              G6sus2        
 Jealousy, turning saints into the sea
 G6sus2                Dsus4
 Swimming through sick lullabies
 Dmaj9               G6sus2
 Choking on your alibis
                   Dsus4
 But it's just the price I pay
 Dmaj9         G6sus2 
 Destiny is calling me
 G6sus2       Dsus4 Dmaj9
 Open up my eager eyes
 G6sus2      G6sus2 (SINGLE STRUM)
 Cause I'm Mr Brightside

            
            
Suggest correction
Creating personal tab
Creating personal tab
You can edit any tab online and save it as your Personal.

You can edit, replace or remove any tab part or add personal notes – all changes will be seen only by you.

Personal tabs can be accessed anytime from any device, even offline.
Learn more »
comments
print report bad tab
guest
You may want to rate the tab now too:
select rating
Wanna post a correction for this tab? Suggest correction