Oops, an error
Loading. Please wait.

On Top tab

version 1
version 1

Whole song

Interactive

10,135 views 18 this week
4 commentsread comments
1 2 3 4 5
x 3
add to favorites
×
Save as Personal and add changes to this tab that will be seen only by you. Learn more ›
×
You can save this tab as Personal to edit and correct it or add notes. All changes will be seen only by you. Learn more »
launch autoscroll
font size
0
reset
how to read this tab
guitar tuner
edit
Autoscroll
slow
fast
+/-
esc
set tempo
stop
Author
-------------------------------------------------------------------------------
                             On top - The Killers
-------------------------------------------------------------------------------
Tabbed by: TheTroy
Tuning: Half Step Down


Intro - Keyboard
e|---------------------------------------------------------------------------|
B|-------6-5---6---------6-5---6---------5-3---5---------5-3---5-------------|
G|---------------7---------------7---------------5---------------5-----------|
D|-7-7-7-----7-----7-7-7-----7-----5-5-5-----5-----5-5-5-----5---------------|
A|---------------------------------------------------------------------------|
E|---------------------------------------------------------------------------|

Guitar intro - Mess with these chords

   Dm      C
e|-1-------0-----------------------------------------------------------------|
B|-3-------1-----------------------------------------------------------------|
G|-2-------0-----------------------------------------------------------------|
D|-0-------2-----------------------------------------------------------------|
A|---------3-----------------------------------------------------------------|
E|---------------------------------------------------------------------------|

Verse - play guitar chords


Chorus - Guitar (figure out strum for yourself)
   Am   C   F   Dm
e|-0----0---1---1------------------------------------------------------------|
B|-1----1---1---3------------------------------------------------------------|
G|-2----0---2---2------------------------------------------------------------|
D|-2----2---3---0------------------------------------------------------------|
A|-0----3---3----------------------------------------------------------------|
E|----------1----------------------------------------------------------------|

Chorus - Keyboard or guitar
e|-15-15-12----15-15-12----15-15-12----15-15-12----13-13-12----13-13-12------|
B|----------13----------13----------13----------13----------13----------13---|
G|---------------------------------------------------------------------------|
D|---------------------------------------------------------------------------|
A|---------------------------------------------------------------------------|
E|---------------------------------------------------------------------------|

e|-13-13-12----13-13-12------------------------------------------------------|
B|----------13----------13---------------------------------------------------|
G|---------------------------------------------------------------------------|
D|---------------------------------------------------------------------------|
A|---------------------------------------------------------------------------|
E|---------------------------------------------------------------------------|

little riff before verse starts back up
e|-12-15-12-15-12------------17----17----------------------------------------|
B|----------------15-13---15----15----15-------------------------------------|
G|---------------------------------------------------------------------------|
D|---------------------------------------------------------------------------|
A|---------------------------------------------------------------------------|
E|---------------------------------------------------------------------------|

Back to verse

Back To chorus

Bridge
   Eb   F   G   Ab
e|----------3----------------------------------------------------------------|
B|--8---10--3---3------------------------------------------------------------|
G|--8---10--4---3------------------------------------------------------------|
D|--8---10--5---3------------------------------------------------------------|
A|--6---8---5---1------------------------------------------------------------|
E|----------3----------------------------------------------------------------|

Bridge pt 2
   Cm   F
e|-3-------------------------------------------------------------------------|
B|-4----10-------------------------------------------------------------------|
G|-5----10-------------------------------------------------------------------|
D|-5----10-------------------------------------------------------------------|
A|-3----8--------------------------------------------------------------------|
E|---------------------------------------------------------------------------|

Solo - keyboard in chorus

thats about it. rate,comment.


| /  slide up
| \  slide down
| h  hammer-on
| p  pull-off
| ~  vibrato
| +  harmonic
| x  Mute note
===============================================================================

            
            
Suggest correction
Creating personal tab
Creating personal tab
You can edit any tab online and save it as your Personal.

You can edit, replace or remove any tab part or add personal notes – all changes will be seen only by you.

Personal tabs can be accessed anytime from any device, even offline.
Learn more »
Give kudos to tab author, rate the tab!
1 2 3 4 5
comments
print report bad tab
4 comments total. Showing first comments.
0 reply
RCH15 45 Dec 23, 2008 12:26 PM

I've been waiting a while for a good tab for this song.

0 reply
lastchild24 10 Jul 28, 2009 07:59 AM

some lyrics with chords would have been nice, otherwise this tab is technically correct i suppose.

0 reply
divinorum69 293 Oct 13, 2009 10:32 AM

Yes, Wee neeed the lyrics especially bridge part

guest
You may want to rate the tab now too:
select rating
Wanna post a correction for this tab? Suggest correction