Oops, an error
Loading. Please wait.

Read My Mind tab

version 1
version 1
44,322 views 30 this week
12 commentsread comments
1 2 3 4 5
x 7
add to favorites
×
Save as Personal and add changes to this tab that will be seen only by you. Learn more ›
×
You can save this tab as Personal to edit and correct it or add notes. All changes will be seen only by you. Learn more »
launch autoscroll
font size
0
reset
how to read this tab
guitar tuner
edit
Autoscroll
slow
fast
+/-
esc
set tempo
stop
Read My Mind - The Killers
special ed

Intro

"I never really gave up on..." 2x (Palm Mute) 

|-------------------------------|
|-------------------------------|
|-------------------------------|
|9999999999999999999999997777777|
|9999999999999999999999997777777|
|-------------------------------|


"Can you read my mind..." 2x


|------------------------------------------------------------------------|
|------------------------------------------------------------------------|
|------------------------------------------------------------------------|
|-------12----------------------12----------------------12---------------|
|9-10-9----9-10-9--------9-10-9----9-10-9--------9-10-9----9-10-7--------|
|------------------------------------------------------------------------|

"The good old days...." 2x

|------------------------------------------------|
|-------------------------15-15-15-15-15-15-15-15|
|-16-16-16-16-16-16-16-16-14-14-14-14-14-14-14-14|
|-17-17-17-17-17-17-17-17------------------------|
|------------------------------------------------|
|-------------------------14-14-14-14-14-14-14-14|

|------------------------------------------------|
|---------------------------15---15---15---------|
|-14-14-14-14-14-14-14-14---14---14---14---------|
|-14-14-14-14-14-14-14-14---14---14---14---------|
|------------------------------------------------|
|-14-14-14-14-14-14-14-14---14---14---14---------|

On the third time, ending goes like this.. 
"Well I don't mind..."

|------------------------------------------------|
|-------------------------15-15-15-15-15-15-15-15|
|-16-16-16-16-16-16-16-16-14-14-14-14-14-14-14-14|
|-17-17-17-17-17-17-17-17------------------------|
|------------------------------------------------|
|-------------------------14-14-14-14-14-14-14-14|

|------------------------------------------------|
|------------------------------------------------|
|-14-14-14-14-16-16-16-16-19-19-19-19-16-16-16-16|
|-14-14-14-14-16-16-16-16-19-19-19-19-16-16-16-16|
|------------------------------------------------|
|------------------------------------------------|

|------------------------------------------------|
|------------------------------------------------|
|-16---14---12----------12-14---12---11----------|
|-16---14---12----------12-14---12---11----------|
|------------------------------------------------|
|------------------------------------------------|

"Its funny how you just break  down..." 2x (Palm Mute)

|-------------------------------|
|-------------------------------|
|-------------------------------|
|9999999999999999999999997777777|
|9999999999999999999999997777777|
|-------------------------------|

"Can you read my mind..." 2x
|------------------------------------------------------------------------|
|------------------------------------------------------------------------|
|------------------------------------------------------------------------|
|-------12----------------------12----------------------12---------------|
|9-10-9----9-10-9--------9-10-9----9-10-9--------9-10-9----9-10-7--------|
|------------------------------------------------------------------------|

"The teenage queen..." 2x

|------------------------------------------------|
|-------------------------15-15-15-15-15-15-15-15|
|-16-16-16-16-16-16-16-16-14-14-14-14-14-14-14-14|
|-17-17-17-17-17-17-17-17------------------------|
|------------------------------------------------|
|-------------------------14-14-14-14-14-14-14-14|

|------------------------------------------------|
|---------------------------15---15---15---------|
|-14-14-14-14-14-14-14-14---14---14---14---------|
|-14-14-14-14-14-14-14-14---14---14---14---------|
|------------------------------------------------|
|-14-14-14-14-14-14-14-14---14---14---14---------|

"Well I don't mind..."

|------------------------------------------------|
|-------------------------15-15-15-15-15-15-15-15|
|-16-16-16-16-16-16-16-16-14-14-14-14-14-14-14-14|
|-17-17-17-17-17-17-17-17------------------------|
|------------------------------------------------|
|-------------------------14-14-14-14-14-14-14-14|

|------------------------------------------------|
|------------------------------------------------|
|-14-14-14-14-16-16-16-16-19-19-19-19-16-16-16-16|
|-14-14-14-14-16-16-16-16-19-19-19-19-16-16-16-16|
|------------------------------------------------|
|------------------------------------------------|

|------------------------------------------------|
|------------------------------------------------|
|-16---14---12----------12-14---12---11----------|
|-16---14---12----------12-14---12---11----------|
|------------------------------------------------|
|------------------------------------------------|

Solo

"Can you read my mind..." 

|---------------------------------------------------|
|-15-15-15-15-15-15-15-15-10-10-10-10-10-10-10-10-10|
|---------------------------------------------------|
|---------------------------------------------------|
|---------------------------------------------------|
|---------------------------------------------------|

|------------------------------------------------|
|-8-8-10-10-7-7-8-8-5-7-5-7--7-7-7^7---5-7-5-7^7-|
|------------------------------------------------|
|------------------------------------------------|
|------------------------------------------------|
|------------------------------------------------|

|----------------------------------------------------|
|----------------------------------------------------|
|-11p7p9-9--7--6-7-9-7---12-12-12--14-14-14--16-16-16|
|----------------------------------------------------|
|----------------------------------------------------|
|----------------------------------------------------|

|--------------------------------------------------|
|-14-14-14--15-15-15--17-17-17^17^17^--------------|
|--------------------------------------------------|
|--------------------------------------------------|
|--------------------------------------------------|
|--------------------------------------------------|

"Slippin' in my faith" 2x

|------------------------------------------------|
|-------------------------15-15-15-15-15-15-15-15|
|-16-16-16-16-16-16-16-16-14-14-14-14-14-14-14-14|
|-17-17-17-17-17-17-17-17------------------------|
|------------------------------------------------|
|-------------------------14-14-14-14-14-14-14-14|

|------------------------------------------------|
|------------------------------------------------|
|-14-14-14-14-14-14-14-14-14-14-14-14-14-14-14-14|
|-14-14-14-14-14-14-14-14-14-14-14-14-14-14-14-14|
|------------------------------------------------|
|-14-14-14-14-14-14-14-14-14-14-14-14-14-14-14-14|

"She said I don't mind"

|------------------------------------------------------------------------|
|------------------------------------------------------------------------|
|------------------------------------------------------------------------|
|-9-9-9-9-9-9-9-9-7-7-7-7-7-7-7-7-5-5-5-5-5-5-5-5-12-12-12-12-12-12-12-12|
|-9-9-9-9-9-9-9-9-7-7-7-7-7-7-7-7-5-5-5-5-5-5-5-5-12-12-12-12-12-12-12-12|
|-7-7-7-7-7-7-7-7-5-5-5-5-5-5-5-5-3-3-3-3-3-3-3-3-10-10-10-10-10-10-10-10|

|----------------------------------------------------------------|
|----------------------------------------------------------------|
|----------------------------------------------------------------|
|-9-9-9-9-9-9-9-9-7-7-7-7-7-7-7-7-5-5-5-5-5-5-5-5-5-5-5-5-5-5-5-5|
|-9-9-9-9-9-9-9-9-7-7-7-7-7-7-7-7-5-5-5-5-5-5-5-5-5-5-5-5-5-5-5-5|
|-7-7-7-7-7-7-7-7-5-5-5-5-5-5-5-5-3-3-3-3-3-3-3-3-3-3-3-3-3-3-3-3|

"Ooooo..." 2x (Palm Mute)

|----------------|
|----------------|
|----------------|
|-------12-------|
|9-10-9----9-10-7|
|----------------|

"Can you read my mind" 2x

|------------------------------------------------------------------------|
|------------------------------------------------------------------------|
|------------------------------------------------------------------------|
|-------12----------------------12----------------------12---------------|
|9-10-9----9-10-9--------9-10-9----9-10-9--------9-10-9----9-10-7--------|
|------------------------------------------------------------------------|



Contact: edpajehth@yahoo.com

            
            
Suggest correction
Creating personal tab
Creating personal tab
You can edit any tab online and save it as your Personal.

You can edit, replace or remove any tab part or add personal notes – all changes will be seen only by you.

Personal tabs can be accessed anytime from any device, even offline.
Learn more »
comments
print report bad tab
12 comments total. Showing first comments.
0 reply
craigo12 31 Mar 17, 2007 06:52 AM

Great, only one thing you need to change,
Instead of playing 15 on the B string at the start of the solo, play 10 on the high E then go to 10 on the B, thats the way its played, and its much easier.

0 reply
sharky_92 10 Mar 24, 2007 10:07 AM

You are crap ! The Tab is crap ! But the song rules so fuk ur mum!

0 reply
ls311 100 Mar 27, 2007 04:54 PM

good tab mate. ..............im actually from the usa. i just wanted to say mate. lol. 5 stars from me, MATE. its dead.

guest
You may want to rate the tab now too:
select rating
Wanna post a correction for this tab? Suggest correction