Oops, an error
Loading. Please wait.

Read My Mind tab

version 3
version 3
3,767 views 3 this week
no commentswrite comment
1 2 3 4 5
2 more votes to show rating
add to favorites
×
Save as Personal and add changes to this tab that will be seen only by you. Learn more ›
×
You can save this tab as Personal to edit and correct it or add notes. All changes will be seen only by you. Learn more »
launch autoscroll
font size
0
reset
how to read this tab
guitar tuner
edit
Autoscroll
slow
fast
+/-
esc
set tempo
stop
Author
Difficulty
so this is my 1st guitar tab. i have listened to this song alot and i think i have 
it out. sorry if its wrong, but even if it is it still goes with the song :P

x - numbed ( muted )
/ - silde
h - hammer on
p - pull off
^ - bend

so i've took the sounds from the keyboard and put them in this tab so you dont have to 
for ages and miss out a good bit of the song. listen  to the song to get the pace and 
right.

intro ( keyboard and up to the last " can you read my mind " )

e|-----------------------------------------------------------------|
G|-----------------------------------------------------------------|
B|-----------------------------------------------------------------| X 6
D|-----------------------------------------------------------------|
A|--5---/7---/9-------------5---/7---/9----------------------------|
E|----------------7---/5-----------------7---/5--------------------|


verse ( i never realy gave up on, breaking outa this 2 star town )

e|-----------------------------------------------------------------|
G|-----------------------------------------------------------------|
B|-----------------------------------------------------------------| X 2
D|--55555555---/7777---/9999---------------------------------------|
A|---------------------------77777777---/55555555------------------|
E|-----------------------------------------------------------------|

verse 2 ( can you read my mind )

e|---------------------------------------------------------------------------|
G|---------------------------------------------------------------------------|
B----------------------------------------------------------------------- X 2-|
D|--3--4--3----3--4-----3----3--4--3----3--4-----3----3--4--3--3--4-----1----|
A|-------------------4------------------------4----------------------4-------|
E|---------------------------------------------------------------------------|


chorus ( " the good old days, the honest man " )

e|--99999999--99999999--77777777--9999--x 3 --xxxxxxxxxxxxxxxxxxx-|
G|--77777777--99999999--99999999--9999--x 3 --9--7--5----9--7--5--|
B|--------------------------------------------xxxxxxxxxxxxxxxxxxx-|
D|-------------------------------------------11--9--7----7--5--3--|
A|----------------------------------------------------------------|
E|----------------------------------------------------------------|


repeat verse ( its funny how you just break down, waiting on some sign )


repeat verse 2 ( can you read my mind )


repeat chorus ( teenage queen, a loaded gun )


solo

e|--------------------------------------------------------------------------|
G|--1515151515151515--1010101010101010--88--1010--77--88--------------------|
B|--------------------------------------------------------9--11--9--11^--11-|
D|--------------------------------------------------------------------------|
A|--------------------------------------------------------------------------|
E|--------------------------------------------------------------------------|

e|---------------------------------------------------------------------|
G|---------------------------------------------------------------------|
B|--9--11--9--11^--11--9h-11p-9----6--7--6--7^--7----6--7--6--7--6--7--|
D|---------------------------------------------------------------------|
A|---------------------------------------------------------------------|
E|---------------------------------------------------------------------|

e|--------------------------------------|
G|--888--101010--121212--141414--161616-|
B|--------------------------------------|
D|--------------------------------------|
A|--------------------------------------|
E|--------------------------------------|


repeat chorus ( slip in my faith until i fall, you neven returned that call ) replace 
part at the end with a repeat of what you would normaly play 4 times. in other words, play 
1st 3 parts 4 times instead of the last part.


repeat intro twice


repeat verse 2 untill fade.

this is a hard song to lern but it becomes instinctive after 2 or 3 play throughs. just 
it in chunks instead of trying to learn all of it at once.

and hi dad!

            
            
Suggest correction
Creating personal tab
Creating personal tab
You can edit any tab online and save it as your Personal.

You can edit, replace or remove any tab part or add personal notes – all changes will be seen only by you.

Personal tabs can be accessed anytime from any device, even offline.
Learn more »
Give kudos to tab author, rate the tab!
1 2 3 4 5
comments
print report bad tab
guest
You may want to rate the tab now too:
select rating
Wanna post a correction for this tab? Suggest correction