Oops, an error
Loading. Please wait.
We have an official Read My Mind tab made by UG professional guitarists. Check out the tab »
×
60,040 views 33 this week
9 commentsread comments
1 2 3 4 5
x 26
add to favorites
×
Save as Personal and add changes to this tab that will be seen only by you. Learn more ›
×
You can save this tab as Personal to edit and correct it or add notes. All changes will be seen only by you. Learn more »
launch autoscroll
font size
0
reset
how to read this tab
guitar tuner
edit
Autoscroll
slow
fast
+/-
esc
set tempo
stop
Artist: The Killers
Song: Read My Mind
Album: Sams Twon
Tabbed by: Necriononguitar
E-Mail: tim.rathgen@gmx.de

REAL FANS SUPPORT BANDS BY PURCHASING THEIR CD'S!!!


Tuning: Half-step down

. = Palm-Muted
~ = hold note
^ = vibrate
p = pull off
h = hammer on
/ = slide up
\ = slide down

This is a tribute to the following link (The tab, ur looking at is in the comments of 
tab, too!)
http://www.ultimate-guitar.com/tabs/k/killers/read_my_mind_crd.htm?view_on&corr#comments

//Intro\\
Only Synth
NO GUITAR

//Verse\\
NO GUITAR


//Pre-Chorus\\
Stil NO GUITAR


//Verse 2\\ 0:46
     All PM!
Eb----------------------------------------|
Bb----------------------------------------|
Gb--7-------6-----------------------------|
Db--7-x16---7-x16-------------------------|
Ab--5-------7-----------------------------|
Eb---------(5)----------------------------|

//Pre-Chorus\\ 1:00
Eb---------------------------------------------------------------------|
Bb---7-8-7--------7-8-7-----7-8-7-------7-8-7-----7-8-7-------7-8--5---|
Gb-----------7---------------------7----------------------7------------|
Db---------------------------------------------------------------------|
Ab---------------------------------------------------------------------|
Eb---------------------------------------------------------------------|

//Chorus\\ 1:15  GUITAR 1
Eb--7-------10-------9--(10)--------------|
Bb--8-x8----10-x8----10-(10)--x16---------|
Gb--7-------11-------9--(9)---------------|
Db----------------------------------------|
Ab----------------------------------------|
Eb----------------------------------------|

GUITAR 2
Eb-----------------------------------|
Bb-----------------------------------|
Gb---12------7-----------------------|
Db---12-x8---7-x8---7----------------|
Ab---10------5------7-x16------------|
Eb------------------5----------------|


GUITAR 1
"I dont mind if..."
Eb---7-------10-------9--------10---------------|
Bb---8-x8----10-x8----10-x12---10--x4-----------|
Gb---7-------11-------9--------9----------------|
Db----------------------------------------------|
Ab----------------------------------------------|
Eb----------------------------------------------|

GUITAR 2
"I dont mind if..."
Eb--------------------------------------------|
Bb--------------------------------------------|
Gb--12-------7--------------------------------|
Db--12-x8----7-x8---7-----8-----9-----4-------|
Ab--10-------5------7-x4--8-x4--9-x4--4-x4----|
Eb------------------5-----6-----7-----2-------|


GUITAR 1
"Before you go..."
Eb---7-------9--------------|
Bb---8-x16---10--x16--------|
Gb---7-------9--------------|
Db--------------------------|
Ab--------------------------|
Eb--------------------------|

GUITAR 2
"Before you go..."
Eb-----------------------------|
Bb-----------------------------|
Gb-----------------------------|
Db---5--------7----------------|
Ab---5-x16----7-x16------------|
Eb---3--------5----------------|

(GUITAR 3)
"Before you go..."
Eb-------------------------------------------|
Bb---12\10--10\8--8~------10\8--8\7--7~------|
Gb-------------------------------------------|
Db-------------------------------------------|
Ab-------------------------------------------|
Eb-------------------------------------------|


//Repeat Verse, Pre-Chorus and Chorus!!\\

//Guitar-Solo\\ 2:43

Eb-10-10-10-10-10-10-10-10------------------------------|
Bb---------------------------10-10-10-10-10-10-10-10----|
Gb------------------------------------------------------|
Db------------------------------------------------------|
Ab------------------------------------------------------|
Eb------------------------------------------------------|

Eb----------------------------------------------------------------------------|
Bb--8-8---10-10---7-7--8-8---5-7-5-7---(5)-7-8b--7--5-7-5---8b-7--5h7p5-------|
Gb-----------------------------------------------------------------------7----|
Db----------------------------------------------------------------------------|
Ab----------------------------------------------------------------------------|
Eb----------------------------------------------------------------------------|

Eb---------------------------------------------------------------------------|
Bb--5b----------5-------/(8)-8-8-8/(10)-10-10-10/(12)-12-12-12---------------|
Gb------7--6-7-----7---------------------------------------------------------|
Db---------------------------------------------------------------------------|
Ab---------------------------------------------------------------------------|
Eb---------------------------------------------------------------------------|

Eb--(9)-9-9-9/(10)-10-10-10/(12)-12-12-12-12-12-12-12--14b15-14b15-----|
Bb---------------------------------------------------------------------|
Gb---------------------------------------------------------------------|
Db---------------------------------------------------------------------|
Ab---------------------------------------------------------------------|
Eb---------------------------------------------------------------------|


//Repeat Chorus\\

----------------------------------------------------------------------------
A Little update:              THANKS TO "LION1" AND "LIMBODEAN43"

The last chorus seems to be a bit longer, but they added this part:
"she says, i dont mind if you dont mind and ..."

      Bm     A      G      D     D/C#            Bm    A      G
Eb--------------------------------------------------------------------|
Bb--------------------------------------------------------------------|
Gb-------------------------7------6-----------------------------------|
Db----9------7------5------7-x4---7-x4-----------9-----7------5-------|
Ab----9-x8---7-x8---5-x8---5------4--------------9-x8--7-x8---5-x16---|
Eb----7------5------3----------------------------7-----5------3-------|

-----------------------------------------------------------------------

//Repeat Verse\\ (with no guitar) and //Pre-Chorus\\ (with Guitar) as an Outro.


Thats it! I hope this helped, please rate, comment and correct me!

Cheers...

            
            
Suggest correction
Creating personal tab
Creating personal tab
You can edit any tab online and save it as your Personal.

You can edit, replace or remove any tab part or add personal notes – all changes will be seen only by you.

Personal tabs can be accessed anytime from any device, even offline.
Learn more »
comments
print report bad tab
9 comments total. Showing first comments.
+1 reply
lion1 32 Mar 06, 2009 04:04 PM

great tab! but just wondering, the final chorus how its a bit longer, i think the tab goes a bit off there. any ideas what it should be?

+1 reply
limbodean43 10 Mar 07, 2009 12:23 AM

yeah you right i think they repeat the chorus and 2. time...
i dont know.
nec.? any idea?
anyway 5*

+1 reply
necriononguitar 3,062 Mar 10, 2009 12:19 AM

omg u guys are totally right. u mean " put your back on me, put your back on me, put your back on me....ooooo"

i am so sorry im going to change it (update) right now
thanks to you lion1, can u rate it?

thx Necrion

guest
You may want to rate the tab now too:
select rating
Wanna post a correction for this tab? Suggest correction