Oops, an error
Loading. Please wait.

Romeo And Juliet bass

7,398 views 6 this week
1 commentread comment
1 2 3 4 5
x 7
add to favorites
×
Save as Personal and add changes to this tab that will be seen only by you. Learn more ›
×
You can save this tab as Personal to edit and correct it or add notes. All changes will be seen only by you. Learn more »
launch autoscroll
font size
0
reset
guitar tuner
edit
Autoscroll
slow
fast
+/-
esc
set tempo
stop
Author
Romeo and juliet
The Killers
Sawdust

G|--------|--------|--------|--------|
D|--------|--------|--------|--------|
A|--------|5-------|7-------|5-----7-|
E|5-------|--------|--------|--------|

Verse 1
G|--------|--------|--------|---------|
D|--------|4-------|--------|4--------|
A|--------|------7-|------7-|---75--5-|
E|5-------|--------|5-------|---------|

G|--------|--------|--------|---------|
D|--------|--------|--------|---------|
A|7--077-5|7--5----|5--055-5|7-7--777-|
E|--------|----5---|--------|---------|

G|--------|--------|--------|---------|
D|--------|4-------|--------|4--------|
A|------7-|------7-|------7-|---75--5-|
E|5-------|--------|5-------|---------|

G|--------|--------|--------|---------|
D|--------|------7-|--------|---------|
A|7--077-5|7-------|5--055-5|77777777-|
E|--------|----5---|--------|---------|

chorus
G|--------|--------|--------|---------|
D|--------|4-------|--------|4--------|
A|---57--5|---75--7|---57--5|---75--7-|
E|5-------|--------|5-------|---------|

G|--------|--------|--------|--------|
D|--------|4-------|--------|----4---|
A|---75--7|----5---|22222224|5557--7-|
E|5-------|--------|--------|--------|


music
G|--------|--------|--------|--------|
D|--------|--------|--------|--------|
A|--------|5-------|7-------|5-----7-|
E|5-------|--------|--------|--------|

Verse 2
G|--------|--------|--------|---------|
D|--------|4-------|--------|4--------|
A|-------7|------7-|------7-|---75--5-|
E|5-------|--------|5-------|---------|

G|--------|--------|--------|---------|
D|--------|------7-|--------|---------|
A|777077-5|7--5----|5--055-5|77777777-|
E|--------|----5---|--------|---------|

G|--------|--------|--------|---------|
D|--------|4-------|--------|4--------|
A|-------7|------7-|------7-|---75--5-|
E|5-------|--------|5-------|---------|

G|--------|--------|--------|---------|
D|--------|----7-7-|--------|---------|
A|77707775|7-75----|55505555|77777777-|
E|--------|--------|--------|---------|

chorus X1

music
G|--------|--------|--------|--------|
D|--------|--------|--------|--------|
A|--------|5-------|7-------|5-----7-|
E|5-------|--------|--------|--------|


verse 3
G|--------|--------|--------|---------|
D|--------|4-------|--------|4--------|
A|-------7|------7-|------7-|---75--5-|
E|5-------|--------|5-------|---------|

G|--------|--------|--------|---------|
D|--------|------7-|--------|---------|
A|7--077-5|7--5----|5-5055-5|7-7--777-|
E|--------|----5---|--------|---------|

G|--------|--------|--------|---------|
D|--------|4-------|--------|4--------|
A|--------|------7-|------7-|---75--5-|
E|5-------|--------|5-------|---------|

G|--------|--------|--------|---------|
D|--------|----7-7-|--------|---------|
A|7-7077-5|7-77----|5-505555|77777777-|
E|--------|--------|--------|---------|

Chorus X1

music
G|--------|--------|--------|--------|
D|--------|--------|--------|--------|
A|--------|5-------|7-------|5-------|
E|5-------|--------|--------|--------|

G|--------|--------|--------|--------|
D|--------|--------|--------|--------|
A|--------|5-------|7-------|5-----7-|
E|5-------|--------|--------|--------|

last verse
G|--------|--------|--------|---------|
D|--------|4-------|--------|4--------|
A|-------7|------7-|------7-|---75--5-|
E|5-------|--------|5-------|---------|

G|--------|--------|--------|--------|
D|--------|--------|--------|--------|
A|7-7077-5|7--5----|5--055-5|7-70777-|
E|--------|----5---|--------|--------|

you and me babe
G|--------|--------|--------|---------|
D|--------|--------|--------|---------|
A|5-5055-5|77070777|5-5055-5|77070777-|
E|--------|--------|--------|---------|

G|--------|--------|--------|---------|
D|--------|--------|--------|---------|
A|5-5055-5|7707-777|5-5055-5|7-7-7777-|
E|--------|--------|--------|---------|

G|--------|--------|--------|
D|--------|--------|--------|
A|5-505555|7-707777|--------|
E|--------|--------|5-------|

            
            
Suggest correction
Creating personal tab
Creating personal tab
You can edit any tab online and save it as your Personal.

You can edit, replace or remove any tab part or add personal notes – all changes will be seen only by you.

Personal tabs can be accessed anytime from any device, even offline.
Learn more »
comments
print report bad tab
1 comment total.
0 reply
Wout053 10 Mar 08, 2017 09:51 AM

isnt it at the chorus: e5-a5-a7-a7.
instead of: e5-a5-a7-a5.

guest
You may want to rate the tab now too:
select rating
Wanna post a correction for this tab? Suggest correction