Oops, an error
Loading. Please wait.

Runaways tab

version 1
version 1

Whole song

Interactive

11,503 views 18 this week
5 commentsread comments
1 2 3 4 5
x 9
add to favorites
×
Save as Personal and add changes to this tab that will be seen only by you. Learn more ›
×
You can save this tab as Personal to edit and correct it or add notes. All changes will be seen only by you. Learn more »
launch autoscroll
font size
0
reset
how to read this tab
guitar tuner
backing track
0:00
0:00
edit
Autoscroll
slow
fast
+/-
esc
set tempo
stop
*-------------------------------------PLEASE NOTE-------------------------------------*
*-This file is the author's own work and represents their interpretation of the song.-*
*-------You may only use this file for private study, scholarship, or research.-------*
*-------------------------------------------------------------------------------------*

Released on July 17th 2012, "Runaways" is the debut single for the Killers
fourth album "Battle Born". It reached #7 in US Alternative top 20, it is also
the Killers' 10th UK top 20 single.

Tabbed by Pelusteriano
Contact at my UG profile
Lyrics by Brandon Flowers
Music by the Killers

=================================================================================
Chords (low to high, in order of appereance, respective to Eb tuning)
D XX0232  A X02220  G 320033  Bm X24432  Em 022000


  INTRO

    D   A    G          D    A
|| -2---0--|-3----|-3---2--|-0---- ||
|| -3---2--|-3----|-3---3--|-2---- ||
||o-2---2--|-0----|-0---2--|-2----o||
||o-0---2--|-0----|-0---0--|-2----o||
|| -----0--|-2----|-2------|-0---- ||
|| --------|-3----|-3------|------ ||x2


  VERSE I

    D   A    G          D    A
|| -2---0--|-3----|-3---2--|-0---- ||
|| -3---2--|-3----|-3---3--|-2---- ||
||o-2---2--|-0----|-0---2--|-2----o||
||o-0---2--|-0----|-0---0--|-2----o||
|| -----0--|-2----|-2------|-0---- ||
|| --------|-3----|-3------|------ ||x2

D           A              G
Blonde hair blowing in the summer wind
              D            A
The blue-eyed girl playing in the sand
     D         A           G      
I've been on a trail for a little while
                 D              A                     
But that was the night that she broke down and held my-


  VERSE II

  G           Bm          Em          A           G           Bm
|-3--3--3---|-2--2--2-2-|-0--0--0-0-|-0--0--0-0-|-3--3--3---|-2--2--2-2-|
|-3--3--3---|-3--3--3-3-|-0--0--0-0-|-2--2--2-2-|-3--3--3---|-3--3--3-3-|
|-0--0--0-0-|-4--4--4-4-|-0--0--0-0-|-2--2--2-2-|-0--0--0-0-|-4--4--4-4-|
|-0--0--0-0-|-4--4--4-4-|-2--2--2-2-|-2--2--2-2-|-0--0--0-0-|-4--4--4-4-|
|-2--2--2-2-|-2--2--2-2-|-2--2--2-2-|-0--0--0-0-|-2--2--2-2-|-2--2--2-2-|
|-3--3--3-3-|-----------|-0--0--0-0-|-----------|-3--3--3-3-|-----------|

  G
 -hand
         Bm
Teenage rush, she said
Em                  A
 "Ain't we all just runaways?"
       G                   Bm
We got time but that ain't much


    A                                                 G                
|| -17-17-17-17-17-17-17-17-17-17-17-17-17-17-17-17-|-17-17-17-17-17-17-17-17-17-17-17-17-17-17-17-17- ||
|| -15-15-15-15-15-15-15-15-15-15-15-15-15-15-15-15-|-15-15-15-15-15-15-15-15-15-15-15-15-15-15-15-15- ||
||o-14-14-14-14-14-14-14-14-14-14-14-14-14-14-14-14-|-X--X--X--X--X--X--X--X--X--X--X--X--X--X--X--X--o||
||o-X--X--X--X--X--X--X--X--X--X--X--X--X--X--X--X--|-0--0--0--0--0--0--0--0--0--0--0--0--0--0--0--0--o||
|| -0--0--0--0--0--0--0--0--0--0--0--0--0--0--0--0--|-14-14-14-14-14-14-14-14-14-14-14-14-14-14-14-14- ||
|| -------------------------------------------------|-15-15-15-15-15-15-15-15-15-15-15-15-15-15-15-15- ||
                                                      use your thumb for the low notes
         A           G
We can't wait 'til tomorrow


  PRE-CHORUS

  A                 Bm                              G                 D 
|-17-17-17-17-17-17-17-17-17-17-17-17-17-17-17-17-|-17-17-17-17-17-17-17-17-17-17-17-17-17-17-17-17-|
|-15-15-15-15-15-15-15-15-15-15-15-15-15-15-15-15-|-15-15-15-15-15-15-15-15-15-15-15-15-15-15-15-15-|
|-14-14-14-14-14-14-14-14-14-14-14-14-14-14-14-14-|-14-14-14-14-14-14-14-14-14-14-14-14-14-14-14-14-|
|-X--X--X--X--X--X--X--X--X--X--X--X--X--X--X--X--|-0--0--0--0--0--0--0--0--0--0--0--0--0--0--0--0--|
|-0--0--0--0--0--0--14-14-14-14-14-14-14-14-14-14-|-14-14-14-14-14-14-X--X--X--X--X--X--X--X--X--X--|
|-------------------------------------------------|-15-15-15-15-15-15-14-14-14-14-14-14-14-14-14-14-|
                                                    use your thumb for the low notes
          A                 Bm
You gotta know that this is real
      G             D
Baby, why you wanna fight it?

  Bm                                              G 
|-------------------------------------------------|-17-17-17-17-17-17-17-17-17-17-17-17-17-17-17-17-|
|-17-17-17-17-17-17-19-19-19-19-19-19-20-20-20-20-|-15-15-15-15-15-15-15-15-15-15-15-15-15-15-15-15-|
|-16-16-16-16-16-16-18-18-18-18-18-18-19-19-19-19-|-14-14-14-14-14-14-14-14-14-14-14-14-14-14-14-14-|
|-X--X--X--X--X--X--X--X--X--X--X--X--X--X--X--X--|-0--0--0--0--0--0--0--0--0--0--0--0--0--0--0--0--|
|-14-14-14-14-14-14-16-16-16-16-16-16-17-17-17-17-|-14-14-14-14-14-14-14-14-14-14-14-14-14-14-14-14-|
|-------------------------------------------------|-15-15-15-15-15-15-15-15-15-15-15-15-15-15-15-15-|

         Bm                  G
It's the one thing you can't choose 

               Palm Mute
  A5  B5    G 
|---------|-3----------------|
|---------|-3----3---3-2---3-|
|-2---4---|-0--4---4-----4---|
|-2---4---|-0----------------|
|-0---2---|-2----------------|
|---------|-3----------------|

   A5 B5 G
Oh!


  VERSE III

 Palm Mute all along
  A5    B5          G5                      D5          A5
|-----------------|-----------------|-----------------|-----------------|
|-----------------|-----------------|-----------------|-----------------|
|-----------------|-----------------|-----------------|-----------------|
|-----------------|-----------------|-------7-7-7-7-7-|-----------------|
|-7-7-7-9-9-9-9-9-|-5-5-5-5-5-5-5-5-|-5-5-5-5-5-5-5-5-|-7-7-7-7-7-7-7-7-|
|-5-5-5-7-7-7-7-7-|-3-3-3-3-3-3-3-3-|-3-3-3-----------|-5-5-5-5-5-5-5-5-|
|
|Palm Mute all along
|-----------------|-----------------|-----------------|-----------------|
|-----3---3-2---3-|-----3---3-2---3-|-----3---3-2---3-|-----3---3-2---3-|
|---4---4-----4---|---4---4-----4---|---4---4-----4---|---4---4-----4---|
|-----------------|-----------------|-----------------|-----------------|
|-----------------|-----------------|-----------------|-----------------|
|-----------------|-----------------|-----------------|-----------------|

A5      B5          G5 
We got engaged on a friday night
               D5           A5
I swore on the head of our unborn child


 Palm Mute all along
 D5     A5          G5                      D5          A5 
|-----------------|-----------------|-----------------|-----------------|
|-----------------|-----------------|-----------------|-----------------|
|-----------------|-----------------|-----------------|-----------------|
|-7-7-7-----------|-----------------|-------7-7-7-7-7-|-----------------|
|-5-5-5-7-7-7-7-7-|-5-5-5-5-5-5-5-5-|-5-5-5-5-5-5-5-5-|-7-7-7-7-7-7-7-7-|
|-------5-5-5-5-5-|-3-3-3-3-3-3-3-3-|-3-3-3-----------|-5-5-5-5-5-5-5-5-|
|
|
|P.M.------------------------------------------------------------------|
|-----------------|-----------------|-----------------|-----------------|
|-----3---3-2---3-|-----3---3-2---3-|-----3---3-2---3-|-----3---3-2---3-|
|---4---4-----4---|---4---4-----4---|---4---4-----4---|---4---4-----4---|
|-----------------|-----------------|-----------------|-----------------|
|-----------------|-----------------|-----------------|-----------------|
|-----------------|-----------------|-----------------|-----------------|

    D5            A5          G5
That I could take care of the three of us
              D5           A5
But I got the tendency to slip when the nights gets-


  VERSE IV
                      _________________________________________________       _______________
                     |1.                                                     |2.
 Palm Mute all along
    G5                B5                E5                A5                  B5
|| -----------------|-----------------|-----------------|----------------- ||-----------------|
|| -----------------|-----------------|-----------------|----------------- ||-----------------|
||o-----------------|-----------------|-----------------|-----------------o||-----------------|
||o-----------------|-----------------|-9-9-9-9-9-9-9-9-|-----------------o||-----------------|
|| -5-5-5-5-5-5-5-5-|-9-9-9-9-9-9-9-9-|-7-7-7-7-7-7-7-7-|-7-7-7-7-7-7-7-7- ||-9-9-9-9-9-9-9-9-|
|| -3-3-3-3-3-3-3-3-|-7-7-7-7-7-7-7-7-|-----------------|-5-5-5-5-5-5-5-5- ||-7-7-7-7-7-7-7-7-|
|
|
| let ring  (X) notes are delayed notes
|| ----------------|-----0h2-(0h2)----|-3---(3)---------|----------------- ||-----------------|
|| ------3-----(3)-|---3--------------|-----------------|-3-------2------- ||-0---(0)---------|
||o----0----(0)----|-4----------------|-----------------|-----------------o||-----------------|
||o----------------|------------------|-----------------|-----------------o||-----------------|
|| ----------------|------------------|-----------------|----------------- ||-----------------|
|| --3-------------|------------------|-----------------|----------------- ||-----------------|

  G5
 -wild
           B5
It's in my blood
E5                        A5
  She said she might just runaway
          G5               B5
Somewhere else, some place good

    A                                                 G                
|| -17-17-17-17-17-17-17-17-17-17-17-17-17-17-17-17-|-17-17-17-17-17-17-17-17-17-17-17-17-17-17-17-17- ||
|| -15-15-15-15-15-15-15-15-15-15-15-15-15-15-15-15-|-15-15-15-15-15-15-15-15-15-15-15-15-15-15-15-15- ||
||o-14-14-14-14-14-14-14-14-14-14-14-14-14-14-14-14-|-X--X--X--X--X--X--X--X--X--X--X--X--X--X--X--X--o||
||o-X--X--X--X--X--X--X--X--X--X--X--X--X--X--X--X--|-0--0--0--0--0--0--0--0--0--0--0--0--0--0--0--0--o||
|| -0--0--0--0--0--0--0--0--0--0--0--0--0--0--0--0--|-14-14-14-14-14-14-14-14-14-14-14-14-14-14-14-14- ||
|| -------------------------------------------------|-15-15-15-15-15-15-15-15-15-15-15-15-15-15-15-15- ||
                                                      use your thumb for the low notes
         A           G
We can't wait 'til tomorrow


  PRE-CHORUS

  A                 Bm                              G                 D 
|-17-17-17-17-17-17-17-17-17-17-17-17-17-17-17-17-|-17-17-17-17-17-17-17-17-17-17-17-17-17-17-17-17-|
|-15-15-15-15-15-15-15-15-15-15-15-15-15-15-15-15-|-15-15-15-15-15-15-15-15-15-15-15-15-15-15-15-15-|
|-14-14-14-14-14-14-14-14-14-14-14-14-14-14-14-14-|-14-14-14-14-14-14-14-14-14-14-14-14-14-14-14-14-|
|-X--X--X--X--X--X--X--X--X--X--X--X--X--X--X--X--|-0--0--0--0--0--0--0--0--0--0--0--0--0--0--0--0--|
|-0--0--0--0--0--0--14-14-14-14-14-14-14-14-14-14-|-14-14-14-14-14-14-X--X--X--X--X--X--X--X--X--X--|
|-------------------------------------------------|-15-15-15-15-15-15-14-14-14-14-14-14-14-14-14-14-|
                                                    use your thumb for the low notes
          A                 Bm
You gotta know that this is real
      G             D
Baby, why you wanna fight it?

  Bm                                              G 
|-------------------------------------------------|-17-17-17-17-17-17-17-17-17-17-17-17-17-17-17-17-|
|-17-17-17-17-17-17-19-19-19-19-19-19-20-20-20-20-|-15-15-15-15-15-15-15-15-15-15-15-15-15-15-15-15-|
|-16-16-16-16-16-16-18-18-18-18-18-18-19-19-19-19-|-14-14-14-14-14-14-14-14-14-14-14-14-14-14-14-14-|
|-X--X--X--X--X--X--X--X--X--X--X--X--X--X--X--X--|-0--0--0--0--0--0--0--0--0--0--0--0--0--0--0--0--|
|-14-14-14-14-14-14-16-16-16-16-16-16-17-17-17-17-|-14-14-14-14-14-14-14-14-14-14-14-14-14-14-14-14-|
|-------------------------------------------------|-15-15-15-15-15-15-15-15-15-15-15-15-15-15-15-15-|

         Bm                  G
It's the one thing you can't choose 


 P.M.----|
  A
|-----------------|-0-0-0-0-0-0-0-0-|
|-----------------|-2-2-2-2-2-2-2-2-|
|-2-2-2-2-2-2-2-2-|-2-2-2-2-2-2-2-2-|
|-2-2-2-2-2-2-2-2-|-2-2-2-2-2-2-2-2-|
|-0-0-0-0-0-0-0-0-|-0-0-0-0-0-0-0-0-|
|-----------------|-----------------|

             A
Let's take a chance, baby, we can't lose


  CHORUS

    D   A    G          D    A
|| -2---0--|-3----|-3---2--|-0---- ||
|| -3---2--|-3----|-3---3--|-2---- ||
||o-2---2--|-0----|-0---2--|-2----o||
||o-0---2--|-0----|-0---0--|-2----o||
|| -----0--|-2----|-2------|-0---- ||
|| --------|-3----|-3------|------ ||x2

                  D       A  G
Ain't we all just runaways?

I knew it when I met you
D             A          D    A  G
I'm not gonna let you runaway
                        D              A
I knew it when I held I wasn't lettin' go


 VERSE V

  F#m               Bm                G
|-----------------|-----------------|-----------------|-----------------|
|-2--2--2--2--2---|-3--3--3--3--3---|-3--3--3--3--3---|-3--3--3--3--3---|
|--2--2--2--2--2--|--4--4--4--4--4--|--4--4--4--4--4--|--4--4--4--4--4--|
|---4--4--4--4--4-|---4--4--4--4--4-|---5--5--5--5--5-|---5--5--5--5--5-|
|-----------------|-----------------|-----------------|-----------------|
|-----------------|-----------------|-----------------|-----------------|
|
|
|-----------------|-----------------|-----------------|-----------------|
|-----------------|-----------------|-----------------|-----------------|
|-----------------|-----------------|-----------------|--0--------------|
|-----------------|-----------------|-----------------|----4-2-------0--|
|-----------------|-----------------|-----------------|-----------4-----|
|-----------------|-----------------|-----------------|-----------------|

           F#m
We used to look at the stars 
       Bm
And confess our dreams
          G
Hold each other 'til the morning light


  D                 Bm                A                 G hold note
|-2--2--2--2--2---|-2--2--2--2--2---|-0--0--0--0--0---|-3---------------------|-------------------|
|--3--3--3--3--3--|--3--3--3--3--3--|--2--2--2--2--2--|-3---------------------|-------------------|
|---2--2--2--2--2-|---4--4--4--4--4-|---2--2--2--2--2-|-0---------------------|-------------------|
|-----------------|-----------------|-----------------|-0---------------------|-------------------|
|-----------------|-----------------|-----------------|-2---------------------|-------------------|
|-----------------|-----------------|-----------------|-3---------------------|-------------------|
|
|
|-----------------|-----------------|-----------------|-10-10-10-9-9-9--7-7-|-7------------------|
|-----------------|-----------------|-----------------|---------------------|---10-10-10-8-7-----|
|-----------------|-----------------|-----------------|---------------------|----------------9-7-|
|-----------------|-----------------|-----------------|---------------------|--------------------|
|-----------------|-----------------|-----------------|---------------------|--------------------|
|-----------------|-----------------|-----------------|---------------------|--------------------|

   D 
We used to laugh
       Bm
Now we only fight
A                      G
Baby, are you lonesome now?


  VERSE VI

  D   A    G          D    A
|-2---0--|-3----|-3---2--|-0----|
|-3---2--|-3----|-3---3--|-2----|
|-2---2--|-0----|-0---2--|-2----|
|-0---2--|-0----|-0---0--|-2----|
|-----0--|-2----|-2------|-0----|
|--------|-3----|-3------|------|
|
|let ring
|--------|------|--------|------|
|--------|------|--------|------|
|-7------|------|--------|------|
|-7------|------|--------|------|
|-5------|------|--------|------|
|--------|------|--------|------|

               D         A          G
And at night I come home after they go to sleep
                 D       A
Like a stumbling ghost I haunt these halls


  D          A           G                                  D             A
|-2----------0---------|-3---------------------|-3----------2-----------|-0--------------------|
|-3----------2---------|-3---------------------|-3----------3-----------|-2--------------------|
|-2----------2---------|-0---------------------|-0----------2-----------|-2--------------------|
|-0----------2---------|-0---------------------|-0----------0-----------|-2--------------------|
|------------0---------|-2---------------------|-2----------------------|-0--------------------|
|----------------------|-3---------------------|-3----------------------|----------------------|
|
|
|----------------------|-----17----15-14----14-|-15---------------------|----------14----------|
|--15-14-15--15-14-15--|--15----15-------17----|----15-14-15--15-14-17--|-17-17-17----17-15-14-|
|----------------------|-----------------------|------------------------|----------------------|
|----------------------|-----------------------|------------------------|----------------------|
|----------------------|-----------------------|------------------------|----------------------|
|----------------------|-----------------------|------------------------|----------------------|

          D          A         G
There's a picture of us on our wedding day
                 D          A                
I recognize that girl but I can't settle in these- 


  P.M.-----------------|
  G5
|-------------------------|-------------------------|
|-------------------------|-------------------------|
|-------------------------|-------------------------|
|-------------------------|-5--5--5--5--5--5--5--5--|
|-5--5--5--5--5--5--5--5--|-5--5--5--5--5--5--5--5--|
|-3--3--3--3--3--3--3--3--|-3--3--3--3--3--2--3--4--|
|
|  fade-out
|-------------------------|-------------------------|
|-15-14-15-14-15-14-15-14-|-15-14-15-14-15-14-15-14-|
|-------------------------|-------------------------|
|-------------------------|-------------------------|
|-------------------------|-------------------------|
|-------------------------|-------------------------|

  G5
 -walls

    A                                                 G                
|| -17-17-17-17-17-17-17-17-17-17-17-17-17-17-17-17-|-17-17-17-17-17-17-17-17-17-17-17-17-17-17-17-17- ||
|| -15-15-15-15-15-15-15-15-15-15-15-15-15-15-15-15-|-15-15-15-15-15-15-15-15-15-15-15-15-15-15-15-15- ||
||o-14-14-14-14-14-14-14-14-14-14-14-14-14-14-14-14-|-X--X--X--X--X--X--X--X--X--X--X--X--X--X--X--X--o||
||o-X--X--X--X--X--X--X--X--X--X--X--X--X--X--X--X--|-0--0--0--0--0--0--0--0--0--0--0--0--0--0--0--0--o||
|| -0--0--0--0--0--0--0--0--0--0--0--0--0--0--0--0--|-14-14-14-14-14-14-14-14-14-14-14-14-14-14-14-14- ||
|| -------------------------------------------------|-15-15-15-15-15-15-15-15-15-15-15-15-15-15-15-15- ||
                                                      use your thumb for the low notes
         A           G
We can't wait 'til tomorrow


  PRE-CHORUS

  A                 Bm                              G                 D
|-17-17-17-17-17-17-17-17-17-17-17-17-17-17-17-17-|-17-17-17-17-17-17-17-17-17-17-17-17-17-17-17-17-|
|-15-15-15-15-15-15-15-15-15-15-15-15-15-15-15-15-|-15-15-15-15-15-15-15-15-15-15-15-15-15-15-15-15-|
|-14-14-14-14-14-14-14-14-14-14-14-14-14-14-14-14-|-14-14-14-14-14-14-14-14-14-14-14-14-14-14-14-14-|
|-X--X--X--X--X--X--X--X--X--X--X--X--X--X--X--X--|-0--0--0--0--0--0--0--0--0--0--0--0--0--0--0--0--|
|-0--0--0--0--0--0--14-14-14-14-14-14-14-14-14-14-|-14-14-14-14-14-14-X--X--X--X--X--X--X--X--X--X--|
|-------------------------------------------------|-15-15-15-15-15-15-14-14-14-14-14-14-14-14-14-14-|
|                                                    use your thumb for the low notes
|P.M.
|-------------------------------------------------|-------------------------------------------------|
|-------------------------------------------------|-------------------------------------------------|
|-------------------------------------------------|-------------------------------------------------|
|-------------------------------------------------|-------------------------------------------------|
|-7-----7-----7-----9-----9-----9-----9-----9-----|-5-----5-----5-----4-----4-----4-----4-----4-----|
|-5-----5-----5-----7-----7-----7-----7-----7-----|-3-----3-----3-----2-----2-----2-----2-----2-----|

          A                 Bm
Now we're caught up in the appeal
      G             D
Baby, why you wanna hide it?


                    Bm                              G                 D
|-17-17-17-17-17-17-17-17-17-17-17-17-17-17-17-17-|-17-17-17-17-17-17-17-17-17-17-17-17-17-17-17-17-|
|-15-15-15-15-15-15-15-15-15-15-15-15-15-15-15-15-|-15-15-15-15-15-15-15-15-15-15-15-15-15-15-15-15-|
|-14-14-14-14-14-14-14-14-14-14-14-14-14-14-14-14-|-14-14-14-14-14-14-14-14-14-14-14-14-14-14-14-14-|
|-X--X--X--X--X--X--X--X--X--X--X--X--X--X--X--X--|-0--0--0--0--0--0--0--0--0--0--0--0--0--0--0--0--|
|-0--0--0--0--0--0--14-14-14-14-14-14-14-14-14-14-|-14-14-14-14-14-14-X--X--X--X--X--X--X--X--X--X--|
|-------------------------------------------------|-15-15-15-15-15-15-14-14-14-14-14-14-14-14-14-14-|
|                                                    use your thumb for the low notes
|Palm mute all along
|-------------------------------------------------|-------------------------------------------------|
|-------------------------------------------------|-------------------------------------------------|
|-------------------------------------------------|-------------------------------------------------|
|-------------------------------------------------|-------------------------------------------------|
|-7-----7-----7-----9-----9-----9-----9-----9-----|-5-----5-----5-----4-----4-----4-----4-----4-----|
|-5-----5-----5-----7-----7-----7-----7-----7-----|-3-----3-----3-----2-----2-----2-----2-----2-----|

         Bm         G     D
It's the last thing on my mind


    A                                                    
|| -17-17-17-17-17-17-17-17-17-17-17-17-17-17-17-17- ||
|| -15-15-15-15-15-15-15-15-15-15-15-15-15-15-15-15- ||
||o-14-14-14-14-14-14-14-14-14-14-14-14-14-14-14-14-o||
||o-X--X--X--X--X--X--X--X--X--X--X--X--X--X--X--X--o||
|| -0--0--0--0--0--0--0--0--0--0--0--0--0--0--0--0-- ||
|| ------------------------------------------------- ||
|
|
|| ------------------------------------------------- ||
|| ------------------------------------------------- ||
||o-------------------------------------------------o||
||o-------------------------------------------------o||
|| -7-----7-----7-----7-----7-----7-----7-----7----- ||
|| -5-----5-----5-----5-----5-----5-----5-----5----- ||

  A
I turn the engine over and my body just comes alive!


  CHORUS

    D   A    G          D    A
|| -2---0--|-3----|-3---2--|-0---- ||
|| -3---2--|-3----|-3---3--|-2---- ||
||o-2---2--|-0----|-0---2--|-2----o||
||o-0---2--|-0----|-0---0--|-2----o||
|| -----0--|-2----|-2------|-0---- ||
|| --------|-3----|-3------|------ ||x2

                  D       A   G
Ain't we all just runaways?

I knew it when I met you
D             A           D   A  G
I'm not gonna let you runaway
                        D              A
I knew it when I held I wasn't lettin' go, oh, oh, oh, oh!


    D     A           G                       D           A                   A5  B5    G  
|| -2-2-2-0-0-0-0-0-|-3-3-3-3-3-3-3-3-|-3-3-3-2-2-2-2-2-|-0-0-0-0-0-0-0-0- ||---------|-3---|
|| -3-3-3-2-2-2-2-2-|-3-3-3-3-3-3-3-3-|-3-3-3-3-3-3-3-3-|-2-2-2-2-2-2-2-2- ||---------|-3---|
||o-2-2-2-2-2-2-2-2-|-0-0-0-0-0-0-0-0-|-0-0-0-2-2-2-2-2-|-2-2-2-2-2-2-2-2-o||-2---4---|-0---|
||o-0-0-0-2-2-2-2-2-|-0-0-0-0-0-0-0-0-|-0-0-0-0-0-0-0-0-|-2-2-2-2-2-2-2-2-o||-2---4---|-0---|
|| -------0-0-0-0-0-|-2-2-2-2-2-2-2-2-|-2-2-2-----------|-0-0-0-0-0-0-0-0- ||-0---2---|-2---|
|| -----------------|-3-3-3-3-3-3-3-3-|-3-3-3-----------|----------------- ||---------|-3---|

D          A        G
  Ain't we all just runaways
  D   A
Yeah, runaways!
D          A        G
  Ain't we all just runaways
  D   A5 B5 G
Yeah!


***************************************************************************************
                    Did you like this tab? Leave a comment or rate!
            Noticed anything wrong? Let me know to fix it. Keep on rocking!
***************************************************************************************

            
            
Suggest correction
Creating personal tab
Creating personal tab
You can edit any tab online and save it as your Personal.

You can edit, replace or remove any tab part or add personal notes – all changes will be seen only by you.

Personal tabs can be accessed anytime from any device, even offline.
Learn more »
comments
print report bad tab
5 comments total. Showing first comments.
+1 reply
florence007 70 Mar 31, 2013 09:09 PM

This tab is waaaay to confusing and needs a tidy up

0 reply
Pelusteriano 5,295 Jun 12, 2013 03:22 PM

Hi @florence007 please let me know what confuses you, the tab is structured with the lead tab over the chord tab, in the songs it is possible to clearly hear 2 guitars, the lead one (upper staff) and the rhythm one (lower staff).

I also attached the chords with lyrics below each part, so you can know where to play, according the chord progressions. So, each tab staff has resemblence with the chords and lyrics below.

0 reply
simishag 10 Nov 11, 2013 11:04 AM

Decent tab, but why are the chords notated as sharps instead of flats? The main chords are the same positions as basic D/A/G, so Db/Ab/Gb would be a lot more intuitive.

guest
You may want to rate the tab now too:
select rating
Wanna post a correction for this tab? Suggest correction