Oops, an error
Loading. Please wait.
We have an official Shadowplay tab made by UG professional guitarists. Check out the tab »
×
8,665 views 9 this week
4 commentsread comments
1 2 3 4 5
x 3
add to favorites
×
Save as Personal and add changes to this tab that will be seen only by you. Learn more ›
×
You can save this tab as Personal to edit and correct it or add notes. All changes will be seen only by you. Learn more »
launch autoscroll
font size
0
reset
how to read this tab
guitar tuner
edit
Autoscroll
slow
fast
+/-
esc
set tempo
stop
Author
The Killers - "Shadowplay" (Joy Division cover)
tabbed by: Fender_dan_08
Standard Tuning

chords used:

F5  x-3-3-2-0-0----------------------------------------|
G5  x-5-5-4-0-0----------------------------------------|
Am5 x-7-7-5-0-0----------------------------------------|
Am  x-0-2-2-1-x----------------------------------------|
D5  x-5-0-7-x-x----------------------------------------|
C5  x-3-0-5-x-x----------------------------------------|
A5  x-0-2-2-x-x----------------------------------------|
-------------------------------------------------------|
Intro:

e|-------------------------------||
B|-------------------------------||
G|-9-8-7-9-8-7-9-8-7-9-8-7-------||
D|-------------------------------|| x2
A|-------------------------------||
E|-------------------------------||

F5   F5 G5 Am5   F5  F5 G5 Am5
whoooo wooooo wooo woooooo woo woo woooo

Verse 1: no guitar

To the centre of the city where all roads meet, waiting for you
To the depths of the ocean where all hopes sank, searching for you
Moving through the silence without motion, waiting for you
In a room with a window in the corner I found truth


e|----------------------------------------------|
B|-0------------------0----------------------1--|
G|---0-----------0------2-0-2----------------2--|
D|-----2---2-0-2---2----------2--2-0-2-------2--|
A|-------------------------------------------0--|
E|----------------------------------------------|

e|-----------------------------------||
B|---------------------------------1-||
G|-9-8-7-9-8-7-9-8-7-9-8-7---------2-||
D|---------------------------------2-|| x2
A|---------------------------------0-||
E|-----------------------------------||

aaaaahhhhhhh

Verse 2: no guitar

In the shadowplay acting out your own death, knowing no more
As the assassins all grouped in four lines, dancing on the floor
And with cold steel, odor on their bodies made a move to connect
I could only stare in disbelief as the crowds all left


e|----------------------------------------------------------------|
B|-0-0-0-1-1-1-1-1--0-0-0-1-1-1-1-1--0-0-0-1--1-1-1--1-1-1--1-1-1-|
G|-2-2-2-2-2-2-2-2--2-2-2-2-2-2-2-2--2-2-2-2--2-2-2--2-2-2--2-2-2-|
D|-2-2-2-2-2-2-2-2--2-2-2-2-2-2-2-2--2-2-2-2--2-2-2--2-2-2--2-2-2-|
A|-0-0-0-0-0-0-0-0--0-0-0-0-0-0-0-0--0-0-0-0--0-0-0--0-0-0--0-0-0-|
E|----------------------------------------------------------------|


e|------------------------------------------------------|
B|-0-0-0-1-1-1-1-1--0-0-0-1-1-1-1-1--1-1-0-1-0-0--0-1-1-|
G|-2-2-2-2-2-2-2-2--2-2-2-2-2-2-2-2--2-2-2-2-2-2--2-2-2-|
D|-2-2-2-2-2-2-2-2--2-2-2-2-2-2-2-2--2-2-2-2-2-2--2-2-2-|
A|-0-0-0-0-0-0-0-0--0-0-0-0-0-0-0-0--0-0-0-0-0-0--0-0-0-|
E|------------------------------------------------------|

Verse 3:

I did everything, everything I wanted to
I let them use you for their own ends
To the centre of the city in the night, waiting for you
To the centre of the city in the night, waiting for you. WOOOOW.

D5 C5 A5  D5 D5 C5 A5  x16

bass solo

whoooo wooooo wooo woooooo woo woo woooo

            
            
Suggest correction
Creating personal tab
Creating personal tab
You can edit any tab online and save it as your Personal.

You can edit, replace or remove any tab part or add personal notes – all changes will be seen only by you.

Personal tabs can be accessed anytime from any device, even offline.
Learn more »
Give kudos to tab author, rate the tab!
1 2 3 4 5
comments
print report bad tab
4 comments total. Showing first comments.
0 reply
RCH15 45 Jan 13, 2009 05:53 AM

Good work.

0 reply
fender_dan_08 51 Jan 13, 2009 11:00 AM

thanks man

0 reply
rasugod 98 Jan 21, 2009 05:44 PM

great job man

guest
You may want to rate the tab now too:
select rating
Wanna post a correction for this tab? Suggest correction