Oops, an error
Loading. Please wait.

Tranquilize bass

version 2
version 2

Whole song

Interactive

8,298 views 6 this week
2 commentsread comments
1 2 3 4 5
x 7
add to favorites
×
Save as Personal and add changes to this tab that will be seen only by you. Learn more ›
×
You can save this tab as Personal to edit and correct it or add notes. All changes will be seen only by you. Learn more »
launch autoscroll
font size
0
reset
guitar tuner
edit
Autoscroll
slow
fast
+/-
esc
set tempo
stop
The E string is tuned down to a C# but other than that this should all be fine.
Comments appreciated.

Main riff part 1
G|------------------|
D|------------------|
A|------------------|
E|--0--12-/-0---7-3-|  

Main riff part 2
G|----------------------|
D|----------------------|
A|----------------------|
E|--0--12--10-7-5-/-7-3-| 

Intro into verse 1 goes
Riff 1, 1, 1, 2, 1, 2, 1, 2, 1, 2, 1, 2, 2, 1, 1, 2, 1, 2, 1, 1, 2, 2
 
Pre-chorus
G|-----------------------------------------------------------------|
D|-----------------------------------------------------------------|
A|-----------------------------------------------------------------|
E|-0000000022222222333333335555777700000000222222223333333355557777|

G|---------|
D|---------|
A|---------|
E|-7—7—7—7-|

Chorus
G|-----------------------------------------|
D|-----------------------------------------|
A|-----------------------------------------|
E|-3-3-3-3-10-10-10-10-12-12-12-12-8-8-8-8-|

G|-----------------------------------------|
D|-----------------------------------------|
A|-----------------------------------------|
E|-3-3-3-3-10-10-10-10-12-12-12-12-7-7-7-7-|

G|-----------------------------------------|
D|-----------------------------------------|
A|-----------------------------------------|
E|-8-8-8-8-10-10-10-10-12-12-12-12-7-7-7-7-|

Post Chorus
G|-------------------|
D|-------------------|
A|-7-6-4-2-----------|
E|---------12-10-8-7-|

Verse 2 goes
Riff 1, 2, 2, 2, 1, 1, 2, 1, 1, 2

Pre-chorus

Chorus

Ending
G|--------------------------------------|
D|--------------------------------------|
A|-7-6-4-2------------------------------|
E|---------12-10-8-7-10-7-5-3-8-7-5-2-3-|

            
            
Suggest correction
Creating personal tab
Creating personal tab
You can edit any tab online and save it as your Personal.

You can edit, replace or remove any tab part or add personal notes – all changes will be seen only by you.

Personal tabs can be accessed anytime from any device, even offline.
Learn more »
comments
print report bad tab
2 comments total.
0 reply
Stephenfold 10 Jun 21, 2014 08:44 PM

So I've been working on/researching this song a whole lot and there are a few problems I've noticed in your tab but I'm sure my version isn't perfect either. Other-wise your tab is spot on! So here's what's wrong as far as I can tell:

The verse main riff orders are slightly wrong but I can't figure them out enough to correct them. What I've been playing verse 1 goes:

1, 1, 1, 2, 2, 2, 2, 2, 1, 2, 1, 2, 3, 4, 2, 2*, 1, 2, 2, 2, 3, 4--

Let me explain what riff 3 and 4 are:

Main riff part 3
G|----------------------|
D|----------------------|
A|----------------------|
E|--3--3--10-7-5-/-7-3--|


Main riff part 3
G|----------------------|
D|----------------------|
A|----------------------|
E|--8--8--10-7-5-/-7-3--|


Now the riff 2 with a star beside it means there's a weird jump, it's basically the same though, only it looks like this:

Main riff part 2
G|----------------------|
D|----------------------|
A|----------------------|
E|--0--12--10-7-5-----3-|


When we get to the chorus, there's a little difference towards the end:

Last lines of chorus:
G|---------------------------------------------|
D|---------------------------------------------|
A|---------------------------------------------|
E|-8-8-8-8-10-10-10-10-12-12-12-12-10-10-10-10-|
Post Chorus
G|--------------------------------------|
D|--------------------------------------|
A|--------------------7-6-4-2-----------|
E|8-8-8-8-10-10-10-10---------12-10-8-7-|


Verse 2 order goes like this:

2, 2, 2, 2*, 2, 2, 2, 2, 3, 4--

I made an alternate tuning for this (Where you tune your A down to G# making the notes easier to reach, because after listening to the song enough I'm not really hearing these slides). Because it's so much different I'm going to go ahead and post it as an alternative to this tab! I'll give you credit at the bottom though, because you've helped me so much! :)

0 reply
Stephenfold 10 Jun 21, 2014 08:50 PM

It won't let me edit but this should be titled Main riff part 4:

Main riff part 4
G|----------------------|
D|----------------------|
A|----------------------|
E|--8--8--10-7-5-/-7-3--|

guest
Wanna post a correction for this tab? Suggest correction