Oops, an error
Loading. Please wait.

Replace My Heart tab

version 2
version 2

Whole song

181 views 1 this week
no commentswrite comment
1 2 3 4 5
3 more votes to show rating
add to favorites
×
Save as Personal and add changes to this tab that will be seen only by you. Learn more ›
×
You can save this tab as Personal to edit and correct it or add notes. All changes will be seen only by you. Learn more »
launch autoscroll
font size
0
reset
how to read this tab
guitar tuner
edit
Autoscroll
slow
fast
+/-
esc
set tempo
stop
-------------------------------------------------------------------------------
                             Replace My Heart - The Killing Tree
-------------------------------------------------------------------------------
Tabbed by: WildGrim
E-mail: Grim-117@hotmail.com

Tuning: Drop D

This is the version on The Romance Of Helen Trent, not Bury Me At Make-Out Creek. It is 
somewhat accurate but there are some parts that are hard for me to figure out, but this 
should get you on the right track.

-- Intro -- x2
e|---------------------------------------------------------------------------------|
B|-----10---10-----10-----10---------10--------10---10-----10-----10---------10----|
G|-7-7----7----7-7----7-7----7-10-10----10--------------------------------10----10-|
D|-----------------------------------------8-8----8----8-8----8-8----8-10----------|
A|---------------------------------------------------------------------------------|
D|---------------------------------------------------------------------------------|

e|-------------------------------------------------------|
B|-------------------------------------------------------|
G|-------5-------5-------/8\-------5-----------5---------|
D|-0-6-3-5-0-1-0-5-3-5-6-----0-6-3-5---------0-5-3-5-6-0-|
A|-0-6-3-3-0-1-0-3-3-5-6-----0-6-3-3---------0-3-3-5-6-0-|
D|-0-6-3---0-1-0---3-5-6-----0-6-3---0-0-1-1-0---3-5-6-0-|
                                     * * * *
-- Verse --
Play this part x4
e|-------------------------------------------------------------------------------|
B|-------------------------------------------------------------------------------|
G|-------10-10-10-10-5--7--8-------10-10-10-10-5--7--8-------10-10-10-10-5--7--8-|
D|-0-0-0---------------------6-6-6---------------------0-0-0---------------------|
A|-0-0-0-8--8--8--8--3--5--6-6-6-6-8--8--8--8--3--5--6-0-0-0-8--8--8--8--3--5--6-|
D|-0-0-0---------------------6-6-6---------------------0-0-0---------------------|

                        End on this
e|-------------------------|----|
B|-------------------------|----|
G|-------------------------|----|
D|-6-66-3-33-5-55-55-6-5-0-|-0~-|
A|-6-66-3-33-5-55-55-6-5-0-|-0~-|
D|-6-66-3-33-5-55-55-6-5-0-|-0~-|
                     * * *
Guitar one - x23 8
e|--------------|
B|--------------|
G|-----------11-|
D|--------------|
A|--------------|
D|-0-0-000-0----|
   * * *** *

Guitar two - x4
e|-----------------------------------------------------------------|
B|-----------------------------------------------------------------|
G|---------------------------------3-3-3-3-3-3-3-3-3-3-3-3-5-5-5-5-|
D|-0-0-0-0-0-0-0-0-0-0-0-0-3-3-3-3-3-3-3-3-3-3-3-3-3-3-3-3-5-5-5-5-|
A|-0-0-0-0-0-0-0-0-0-0-0-0-3-3-3-3-1-1-1-1-1-1-1-1-1-1-1-1-3-3-3-3-|
D|-0-0-0-0-0-0-0-0-0-0-0-0-3-3-3-3---------------------------------|
   * * * * * * * * * * * * * * * * * * * * * * * * * * * * * * * *

Guitar one and two - x4
e|-----------------------------------------------------------------|
B|-----------------------------------------------------------------|
G|---------------------------------3-3-3-3-3-3-3-3-3-3-3-3-5-5-5-5-|
D|-0-0-0-0-0-0-0-0-0-0-0-0-3-3-3-3-3-3-3-3-3-3-3-3-3-3-3-3-5-5-5-5-|
A|-0-0-0-0-0-0-0-0-0-0-0-0-3-3-3-3-1-1-1-1-1-1-1-1-1-1-1-1-3-3-3-3-|
D|-0-0-0-0-0-0-0-0-0-0-0-0-3-3-3-3---------------------------------|
   * * * * * * * * * * * * * * * * * * * * * * * * * * * *

Guitar one and two - x4 After each time this part is played, a different bit is played after
e|-----------------------------------|
B|-----------------------------------|
G|-----------------------------------|
D|-6-6-6-6-6-6-6-6-5-5-5-5-5-5-5-5-0-|
A|-6-6-6-6-6-6-6-6-5-5-5-5-5-5-5-5-0-|
D|-6-6-6-6-6-6-6-6-5-5-5-5-5-5-5-5-0-|
   * * * * * * * * * * * * * * * *

The parts (in order) are:
Guitar one
e|-------------------------|----------------------|-------------------------|
B|-------------------------|----5+-------7+-7+----|-------------------------|
G|-------------------------|-5+----5+-5+----------|-------------------------|
D|-------------------------|----------------------|-------------------------|
A|-------------------------|----------------------|-------------------------|
D|-\\\\\Pickslide\\\\\-----|----------------------|-\\\\\Pickslide\\\\\-----|

Guitar two                                   Tremelo pick harmonics up the neck
e|-------------------------|----------------------|-------------------------|
B|-------------------------|----------15--15------|-7+//////////////////19+-|
G|--------------------11++-|----------17b-17b-----|-------------------------|
D|-------------------------|----------------------|-------------------------|
A|-------------------------|----------------------|-------------------------|
D|-------------------------|----------------------|-------------------------|

After all of that, end on this:
e|---------|
B|---------|
G|-3-3-3-5-|
D|-3-3-3-5-|
A|-1-1-1-3-|
D|---------|

-- Chorus --
Play this x2
e|-----------------------------------------------------------------|
B|-----------------------------------------------------------------|
G|---------------------------------3-3-3-3-3-3-3-3-3-3-3-3-5-5-5-5-|
D|-0-0-0-0-0-0-0-0-0-0-0-0-3-3-3-3-3-3-3-3-3-3-3-3-3-3-3-3-5-5-5-5-|
A|-0-0-0-0-0-0-0-0-0-0-0-0-3-3-3-3-1-1-1-1-1-1-1-1-1-1-1-1-3-3-3-3-|
D|-0-0-0-0-0-0-0-0-0-0-0-0-3-3-3-3---------------------------------|

And then this x2
e|----------------------------------------------------------------------------------|
B|----------------------------------------------------------------------------------|
G|-10-9-9-9-9-9-9-9-9-9-9-9-9-10-10-12-12-12-12-12-12-12-12-12-12-12-12-12-12-12-12-|
D|----------------------------------------------------------------------------------|
A|-8--7-7-7-7-7-7-7-7-7-7-7-7-8--8--10-10-10-10-10-10-10-10-10-10-10-10-10-10-10-10-|
D|----------------------------------------------------------------------------------|

e|---------------------------------------------------------------------------------|
B|---------------------------------------------------------------------------------|
G|-9-9-9-9-10-10-10-10-12-12-12-12-14-14-14-14-15-15-15-15-17-17-17-17-------------|
D|---------------------------------------------------------------------------------|
A|-7-7-7-7-8--8--8--8--10-10-10-10-12-12-12-12-13-13-13-13-15-15-15-15-------------|
D|---------------------------------------------------------------------15-14-10-12-|

Play both parts x4                                End on this
e|-------------------------|-------------------------|-----|
B|-------------------------|---------3-4-6-7-6-3-4-6-|-----|
G|-------------------------|-------------------------|-----|
D|-0-0-0-0-----------------|-0-0-0-0-----------------|-5-8-|
A|-0-0-0-0-----------------|-0-0-0-0-----------------|-5-8-|
D|-0-0-0-0-0-1-3-5-3-0-1-3-|-0-0-0-0-----------------|-5-8-|
   * * * * * * * * * * * *   * * * *

-- Verse -- Play this part x4
e|-------------------------------------------------------------------------------|
B|-------------------------------------------------------------------------------|
G|-------10-10-10-10-5--7--8-------10-10-10-10-5--7--8-------10-10-10-10-5--7--8-|
D|-0-0-0---------------------6-6-6---------------------0-0-0---------------------|
A|-0-0-0-8--8--8--8--3--5--6-6-6-6-8--8--8--8--3--5--6-0-0-0-8--8--8--8--3--5--6-|
D|-0-0-0---------------------6-6-6---------------------0-0-0---------------------|

                        End on this
e|-------------------------|----|
B|-------------------------|----|
G|-------------------------|----|
D|-6-66-3-33-5-55-55-6-5-0-|-0~-|
A|-6-66-3-33-5-55-55-6-5-0-|-0~-|
D|-6-66-3-33-5-55-55-6-5-0-|-0~-|
                     * * *

-- Pre-Chorus ---
Play this part x4
e|---------------------------------------------------------------------------------|
B|-----10---10-----10-----10---------10--------10---10-----10-----10---------10----|
G|-7-7----7----7-7----7-7----7-10-10----10--------------------------------10----10-|
D|-----------------------------------------8-8----8----8-8----8-8----8-10----------|
A|---------------------------------------------------------------------------------|
D|---------------------------------------------------------------------------------|

Guitar one and two - x4 After each time this part is played, a different bit is played after
e|-----------------------------------|
B|-----------------------------------|
G|-----------------------------------|
D|-6-6-6-6-6-6-6-6-5-5-5-5-5-5-5-5-0-|
A|-6-6-6-6-6-6-6-6-5-5-5-5-5-5-5-5-0-|
D|-6-6-6-6-6-6-6-6-5-5-5-5-5-5-5-5-0-|
   * * * * * * * * * * * * * * * *

The parts (in order) are:
Guitar one
e|-------------------------|----------------------|-------------------------|
B|-------------------------|----5+-------7+-7+----|-------------------------|
G|-------------------------|-5+----5+-5+----------|-------------------------|
D|-------------------------|----------------------|-------------------------|
A|-------------------------|----------------------|-------------------------|
D|-\\\\\Pickslide\\\\\-----|----------------------|-\\\\\Pickslide\\\\\-----|

Guitar two
e|-------------------------|----------------------|-------------------------|
B|------15-----------------|----------------------|-------------------------|
G|------17b----------------|----------------------|-------------------------|
D|-------------------------|----------------------|-------------------------|
A|-------------------------|----------------------|-------------------------|
D|-------------------------|----------------------|-\\\\\Pickslide\\\\\-----|
(These parts are hard for me to figure out

e|---------|
B|---------|
G|-3-3-3-5-|
D|-3-3-3-5-|
A|-1-1-1-3-|
D|---------|

-- Chorus --
Play this part x2
e|-----------------------------------------------------------------|
B|-----------------------------------------------------------------|
G|---------------------------------3-3-3-3-3-3-3-3-3-3-3-3-5-5-5-5-|
D|-0-0-0-0-0-0-0-0-0-0-0-0-3-3-3-3-3-3-3-3-3-3-3-3-3-3-3-3-5-5-5-5-|
A|-0-0-0-0-0-0-0-0-0-0-0-0-3-3-3-3-1-1-1-1-1-1-1-1-1-1-1-1-3-3-3-3-|
D|-0-0-0-0-0-0-0-0-0-0-0-0-3-3-3-3---------------------------------|

Then this x2
e|----------------------------------------------------------------------------------|
B|----------------------------------------------------------------------------------|
G|-10-9-9-9-9-9-9-9-9-9-9-9-9-10-10-12-12-12-12-12-12-12-12-12-12-12-12-12-12-12-12-|
D|----------------------------------------------------------------------------------|
A|-8--7-7-7-7-7-7-7-7-7-7-7-7-8--8--10-10-10-10-10-10-10-10-10-10-10-10-10-10-10-10-|
D|----------------------------------------------------------------------------------|

e|---------------------------------------------------------------------------------|
B|---------------------------------------------------------------------------------|
G|-9-9-9-9-10-10-10-10-12-12-12-12-14-14-14-14-15-15-15-15-17-17-17-17-------------|
D|---------------------------------------------------------------------------------|
A|-7-7-7-7-8--8--8--8--10-10-10-10-12-12-12-12-13-13-13-13-15-15-15-15-------------|
D|---------------------------------------------------------------------15-14-10-12-|

e|---|
B|---|
G|---|
D|-0-|
A|-0-|
D|-0-|

-- Outro --
Play both parts x4                                End on this
e|-------------------------|-------------------------|-------|
B|-------------------------|---------3-4-6-7-6-3-4-6-|-------|
G|-------------------------|-------------------------|-------|
D|-0-0-0-0-----------------|-0-0-0-0-----------------|-5-8-0-|
A|-0-0-0-0-0-1-3-5-3-0-1-3-|-0-0-0-0-----------------|-5-8-0-|
D|-0-0-0-0-0-1-3-5-3-0-1-3-|-0-0-0-0-----------------|-5-8-0-|
   * * * * * * * * * * * *   * * * *

************************************

| /   slide up
| \   slide down
| h   hammer-on
| p   pull-off
| ~   vibrato
| +   harmonic
| ++  pinch-harmonic
| *   palm mute
| x   Mute note
| b   Bend
| pb  Pre-bend
| br  Bend release
| pbr Pre-bend release
| brb Bend release bend

************************************

            
            
Suggest correction
Creating personal tab
Creating personal tab
You can edit any tab online and save it as your Personal.

You can edit, replace or remove any tab part or add personal notes – all changes will be seen only by you.

Personal tabs can be accessed anytime from any device, even offline.
Learn more »
Give kudos to tab author, rate the tab!
1 2 3 4 5
comments
print report bad tab
guest
You may want to rate the tab now too:
select rating
Wanna post a correction for this tab? Suggest correction