Oops, an error
Loading. Please wait.

Goodnight Bad Morning tab

version 1
version 1

Whole song

16,336 views 3 this week
1 commentread comment
1 2 3 4 5
x 13
add to favorites
×
Save as Personal and add changes to this tab that will be seen only by you. Learn more ›
×
You can save this tab as Personal to edit and correct it or add notes. All changes will be seen only by you. Learn more »
launch autoscroll
font size
0
reset
how to read this tab
guitar tuner
edit
Autoscroll
slow
fast
+/-
esc
set tempo
stop
Author
-------------------------------------------------------------------------------
                             GOODNIGHT BAD MORNING - The Kills
-------------------------------------------------------------------------------

Tabbed by: Filip Mesko
Email: filip DOT mesko AT gmail DOT com

Tuning: B F# B E G# C#   OR   E A D G B E


Either you tune it B F# B E G# C# and play it like this:

Chords are F and A#.

C# |-------------------------------------|
G# |-------------------------------------|
E  |-------5-------5-------6-------6-----|
B  |-----6---6---6---6---6---6---6---6---| 
F# |-------------------4-------4---------|
B  |---6-------6-------------------------|


...or you tune it E A D G B E (standard) and play it like this:

E |-------------------------------------|
B |-------------------------------------|
G |-------2-------2-------3-------3-----|
D |-----3---3---3---3---3---3---3---3---| 
A |-------------------1-------1---------|
E |---1-------1-------------------------|


This repeats throughout the whole song.

Good luck!
Please e-mail or comment suggestions etc...


| ^  bend
| /  slide up
| \  slide down
| h  hammer-on
| p  pull-off
| ~  vibrato
| +  harmonic
| x  Mute note
===============================================================================

            
            
Suggest correction
Creating personal tab
Creating personal tab
You can edit any tab online and save it as your Personal.

You can edit, replace or remove any tab part or add personal notes – all changes will be seen only by you.

Personal tabs can be accessed anytime from any device, even offline.
Learn more »
comments
print report bad tab
1 comment total.
0 reply
jrfox92 157 Jun 23, 2011 05:36 PM

can you tab out the solo part, which is a piano in the recording.
i've managed to scrap together a bit from the version from Abbey Road.
|-7-7-7------------------------------
|-----------8h10-8h10----------------
|-------7-5--------------------------
|------------------------------------
|------------------------------------
|------------------------------------

guest
You may want to rate the tab now too:
select rating
Wanna post a correction for this tab? Suggest correction