Oops, an error
Loading. Please wait.

Picture Book tab

version 1
version 1

Whole song

10,867 views 24 this week
2 commentsread comments
1 2 3 4 5
x 3
add to favorites
×
Save as Personal and add changes to this tab that will be seen only by you. Learn more ›
×
You can save this tab as Personal to edit and correct it or add notes. All changes will be seen only by you. Learn more »
launch autoscroll
font size
0
reset
how to read this tab
guitar tuner
edit
Autoscroll
slow
fast
+/-
esc
set tempo
stop
ok

there's a lot going on in this song, but its all just playing around with the chords.

here we go.

Chords: E, A, D, G, C, and F (all open chords)

(Intro-bass)

e[-------------------------------------------------------|
B[-------------------------------------------------------|
G[------------------------------------0------------------|
D[--------------------------0-0--2-4-----4---------------|
A[----------------0-0--2-4-------------------------------|
E[-12/--0-0--2-4-----------------------------------------|

e[-------------------------------------------------------|
B[-------------------------------------------------------|
G[------------------------------0------------------------|
D[---------------------0-0-2-4---------------------------|
A[-----------0-0--2-4------------------------------------|
E[-0-0--2-4----------------------------------------------|


E       A         D             G
Picture yourself, when your getting old,
E       A         D             G
Sat by the fireside, and ponder it all (?)
C              F               C
Picture Book, pictures of your mama,
F              C      F          C
taken by your poppa, a long time ago...
C             F                C
Picture book, of people with eachother
F                      C        F          C
to prove they love eachother, a long time ago...
F           C
Na, na, na, na, na, na...
F           C
Na, na, na, na, na, na...

Picture book!

(repeat intro)

verse 2

A picture of you... in your birthday suit
You sat in the sun on a hot afternoon.
Picture Book, you momma and your poppa, your fat old Uncle Charlie,
a-boozing (cruising?) with their freinds.
Picture Book, a holiday in August,
outside a bed and breakfast, in sunny South Bend.
Picture Book, those days when you were happy,
when you were just a baby, a long time ago...
Na, na, na, na, na, na... (x4)
Picture Book! (x4)

(single guitar)
Picture Book, Na, na, na, na, na,
Na, na, na, na, na...
A scooby-dooby-doo...

(entire band)

Picture Book, Na, na, na, na, na,
Na, na, na, na, na...
A scooby-dooby-doo...

Picture Book, pictures of your momma,
Taken by you poppa, a long time ago
A Long time ago... (x4)

Yeah, yeah, yeah...

Outro (basically same as intro)


easy song right?

figure it out if its not, dummy!

            
            
Suggest correction
Creating personal tab
Creating personal tab
You can edit any tab online and save it as your Personal.

You can edit, replace or remove any tab part or add personal notes – all changes will be seen only by you.

Personal tabs can be accessed anytime from any device, even offline.
Learn more »
Give kudos to tab author, rate the tab!
1 2 3 4 5
comments
print report bad tab
2 comments total.
0 reply
Elmis 62 Apr 21, 2008 05:42 PM

opening:

e---------------------------------
B---------------------------------
G-----------------0-0-2-4-5-5-4-3-
D---------0-0-2-4-----------------
A-0-0-2-4-------------------------
E---------------------------------

0 reply
diblor 10 May 18, 2008 10:57 AM

i agree with elmis except i would have the last note as a g2 again.

guest
Wanna post a correction for this tab? Suggest correction