Oops, an error
Loading. Please wait.
We have Chord Pro version of My Sharona.
It's the closest thing you can get to the original song and it has interactive parts. Check out the tab »
×
121,104 views 147 this week
7 commentsread comments
1 2 3 4 5
x 34
add to favorites
×
Save as Personal and add changes to this tab that will be seen only by you. Learn more ›
×
You can save this tab as Personal to edit and correct it or add notes. All changes will be seen only by you. Learn more »
launch autoscroll
font size
0
reset
guitar tuner
backing track
0:00
0:00
edit
Autoscroll
slow
fast
+/-
esc
set tempo
stop
Author
Unregistered
[Intro/Verse]

        (Repeat 4 times]

G|------|--------------|-------------|-------------|------------|
D|------|*-----5-5---5-|---5---5-5---|-----5-5---5-|-----------*|
A|-10\X-|*-------------|-------------|-------------|-3-1-3-1---*| x4
E|------|--3-3-----3---|-3---3-----1/|-3-3-----3---|---------1/-|


[Chorus]
 
G|-----------------|-----------------|-----------------|-----------------|
D|---5-5-5---5-5-5-|---5-5-5---5-5-5-|---8-8-8---8-8-8-|---8-8-8---8-8-8-|
A|-----------------|-----------------|-----------------|-----------------|
E|-3-------3-------|-3-------3-------|-6-------6-------|-6-------6-------|

  
G|-------|---------|
D|-------|---------|
A|-----6-|-6-6-6-8-|
E|-8-8---|---------|


[Verse] 

    
G|------|--------------|-------------|-------------|------------|
D|------|*-----5-5---5-|---5---5-5---|-----5-5---5-|-----------*| x3
A|-10\X-|*-------------|-------------|-------------|-3-1-3-1---*|
E|------|--3-3-----3---|-3---3-----1/|-3-3-----3---|---------1/-|

(Repeat 3 times)


[Chorus]

[1st Variation]              (Repeat 4 times)

G|-------------|-------------|--------------|-------------|-------|------------|
D|-----5-5---5-|---5---5-5---|*-----5-5---5-|---5---5-5-5-|-------|-----------*|
A|-------------|-------------|*-------------|-------------|-3-3-6-|-6-6-8-6-8-*|
E|-3-3-----3---|-3---3-----1/|--3-3-----3---|-3---3-------|-------|------------|

G|-----------------|----------------|
D|-----------------|----------------|
A|-5-5-5-5-5-5-5-5-|-5-5-5-5-5-10\X-|
E|-----------------|----------------|


[Intro/Verse]   

G|------|--------------|-------------|-------------|------------|
D|------|*-----5-5---5-|---5---5-5---|-----5-5---5-|-----------*| x4
A|-10\X-|*-------------|-------------|-------------|-3-1-3-1---*|
E|------|--3-3-----3---|-3---3-----1/|-3-3-----3---|---------1/-|


[Chorus]

[2nd Variation]                                  (Repeat 4 times)

G|-------------|-------------|-------|-----------|--------------|--------------|
D|-----5-5---5-|---5---5-5-5-|-------|-----------|*-----5-5---5-|---5-----5---*|
A|-------------|-------------|-3-3-6-|-6-6-8-6-8-|*-------------|-------------*|
E|-3-3-----3---|-3---3-------|-------|-----------|--3-3-----3---|-3---3-3---3--|

G|-------------|-----------|---|-----|---|------------------|
D|-----5-5---5-|---5-----5-|---|-----|---|------------------|
A|-------------|-----------|-3-|-3---|---|------------------|
E|-3-3-----3---|-3---3-3---|---|---3/|-8-|-8-8-10-10-10-8-3-|


[Solo]

(Repeat 8 times)       (Repeat 15 times)

G|----------|----------|----------|--------------|---------|---------|---------|
D|*---------|---------*|*---------|-------------*|---------|-----3-3-|---------|
A|*-3-------|---------*|*-3-------|---------0-1-*|-3-------|---------|-3-------|
E|----3-3-1-|-1-1-1-3--|----3-3-1-|-1-1-3-3------|---3-3-1-|-1-1-----|---3-3-1-|

G|---------|---------|-------|---------|---------|-----------------|
D|---------|---------|-------|---------|---------|-----------------|
A|---------|-3-------|-------|-3-------|---------|-5-5-5-5-5-5-5-5-|
E|-1-1-1-3-|---3-3-1-|-1-1-1-|---3-3-1-|-1-1-1-3-|-----------------|

                2/4
G|-------------|----------|
D|-----------R-|---R------|
A|-5-5-5-5-5---|-----10\X-|
E|-------------|----------|


[End]

 (Repeat 5 times)

G|----------------|--------------|
D|--------5-5---5-|---5---5-5---*|
A|----------------|-------------*|
E|----3-3-----3---|-3---3-----1/-|


(Repeat 3 times Intro/Verse)

G|------|--------------|-------------|-------------|------------|
D|------|*-----5-5---5-|---5---5-5---|-----5-5---5-|-----------*|
A|-10\X-|*-------------|-------------|-------------|-3-1-3-1---*| x3
E|------|--3-3-----3---|-3---3-----1/|-3-3-----3---|---------1/-|



************************************

|  /   Slide up
| \X = Slide to nowhere
|  R   Rest

************************************

            
            
Suggest correction
Creating personal tab
Creating personal tab
You can edit any tab online and save it as your Personal.

You can edit, replace or remove any tab part or add personal notes – all changes will be seen only by you.

Personal tabs can be accessed anytime from any device, even offline.
Learn more »
comments
print report bad tab
7 comments total. Showing first comments.
+1 reply
saturns_bassman 789 Oct 01, 2004 08:00 PM

great tab did you know every1 thought this was about some guys wang!!eeww nasty but it is really about a underaged fan of the knacks how whack is that!!!!

+3 reply
Nickman3000 10 Dec 31, 2006 11:42 PM

More than half decent, very nice, very well done

-1 reply
ruy006 31 May 05, 2007 02:11 PM

this tab doesnt match with the real song... wtf..

guest
Wanna post a correction for this tab? Suggest correction